Showing posts with label sleepwalk. Show all posts
Showing posts with label sleepwalk. Show all posts

20161123

THE SHADOWS SLEEPWALK TAB (ROCK ON WITH THE SHADOWS, 1961)

Sleepwalk is a legendary song from Hank Marvin and The Shadows.
The tablature follows the record on the album "Rock on with the Shadows" from 1961.
Enjoy it !



THE SHADOWS SLEEPWALK TAB

GP5 + GP6 + PDF >>

Part 1
                                tremolo
e--------------12/15~---------------------------15.---------------------
B------------13---------------------------------------------------------
G------12-14-----------------12-(11)-(12)~-----------12~----------------
D-----------------------------------------------------------------------
A-----------------------------------------------------------------------
E-----------------------------------------------------------------------

                         tremolo
e-----------------------------------------------------------------------
B---------13-13~-------8-(7)-(8)~---------------------------------------
G---12-14---------------------------------------------------------------
D-----------------------------------------------------------------------
A-----------------------------------------------------------------------
E-----------------------------------------------------------------------


e--------------------8~-------------------------------------------------
B---6-8-8h9-8~---6\5-----------8---8~-----------------------------------
G-----------------------------------------------------------------------
D-----------------------------------------------------------------------
A-----------------------------------------------------------------------
E-----------------------------------------------------------------------


20161121

THE SHADOWS SLEEPWALK TAB (LIVE FROM THE FINAL TOUR 2004)

The Shadows - Sleepwalk - live version from The Final Tour (2004)
Probably sounds better than the original record.
Lead guitar line + chords below.



THE SHADOWS SLEEPWALK TAB (LIVE)

GP5 + GP6 + PDF >>

Part 1
                            tremolo
e------------15~---15~--------------------------------------------------
B---------13------------------------------------------------------------
G---12/14----------------12-(11)-(12)~----------------------------------
D-----------------------------------------------------------------------
A-----------------------------------------------------------------------
E-----------------------------------------------------------------------

       tremolo
e-----------------------------------------------------------------------
B---13-(12)-(13)~------8---8~-------------------------------------------
G-----------------------------------------------------------------------
D-----------------------------------------------------------------------
A-----------------------------------------------------------------------
E-----------------------------------------------------------------------

                                   tremolo
e------------------------8~---------------------------------------------
B---6-8-8(9)---(8)---6\5---------8-(7)-(8)~-----------------------------
G-----------------------------------------------------------------------
D-----------------------------------------------------------------------
A-----------------------------------------------------------------------
E-----------------------------------------------------------------------