Showing posts with label snatam kaur. Show all posts
Showing posts with label snatam kaur. Show all posts

20170204

SNATAM KAUR RA MA DA SA TAB (ACOUSTIC GUITAR)


Snatam Kaur - Ra Ma Da Sa relaxing meditation mantra.
Minimal - but very nice - guitar playing in the background from about 0:40 on.
Download the PDF and GP files below.



SNATAM KAUR RA MA DA SA TAB

GP5 + GP6 + PDF >>

Verse

e---------------3-----------------------3-------------------------------
B-----------3-------3---------------3-------3---------------------------
G-------5---------------5-------5---------------5-----------------------
D---5-----------------------5-------------------------------------------
A-----------------------------------------------------------------------
E-----------------------------------------------------------------------


e-------------3-----------------------3-----------------------3---------
B---------3-------3---------------3-------3---------------3-------3-----
G-----5---------------5-------5---------------5-------5---------------5-
D-------------------------5-----------------------5---------------------
A-0---------------------------------------------------------------------
E-----------------------------------------------------------------------


e---------------3-----------------------3-------------------------------
B-----------3-------3---------------3-------3---------------------------
G-------5---------------5-------5---------------5-----------------------
D---5-----------------------5-------------------------------------------
A-----------------------------------------------------------------------
E-----------------------------------------------------------------------