Showing posts with label solo. Show all posts
Showing posts with label solo. Show all posts

20170219

VASCO ROSSI TU VUOI DA ME QUALCOSA TAB (GUITAR SOLO BY STEF BURNS)

Vasco Rossi - Tu Vuoi Da Me Qualcosa guitar solo played by Stef Burns
The solo starts about 4:02 in this version.
Download the GP6, GP5 and PDF files below.



VASCO ROSSI TU VUOI DA ME QUALCOSA SOLO TAB

GP5 + GP6 + PDF >>

(4:02 - 4:30)

e-----------------------------------------------------------------------
B-------------------10~----------9~----------12~------------------------
G---------------9-------------------------------------------------------
D-------------9---9-----------------------------------------------------
A-------7-/11-----------------------------------------------------------
E---7h9-----------------------------------------------------------------


e-----------------------------------------------------------------------
B-----------------------------------------------------------------------
G---11~----------9~-----------(13)---(11)-------------------------------
D--------------------------------------------/13~---------h14p13p11~----
A-----------------------------------------------------------------------
E-----------------------------------------------------------------------


e-----------------------------------------------------------------------
B-----------------------------------------------------------------------
G-------11(13)---(11)(13)-------(11)p9-11~------------------------------
D---9h11----------------------------------------------------------------
A-----------------------------------------------------------------------
E-----------------------------------------------------------------------


20170214

ZAKK WYLDE DARKEST HOUR TAB (GUITAR SOLO COVER BY GAKU)


Zakk Wylde - Darkest Hour guitar solo cover played by Gaku.
Download the GP6, GP5 and PDF files below.



ZAKK WYLDE DARKEST HOUR SOLO TAB

GP5 + GP6 + PDF >>

e--10-------9-------7---------------------------------------------------
B--------------------10-8-7-10-8-7--------------------------------------
G---------------------------------9-7-6-9-7-6---------------------------
D--------------------------------------------9-7-5-9-7-5------x-x-x-----
A-------------------------------------------------------9-7-5-x-x-x-----
E-----------------------------------------------------------------------
                    x x x x x  x xx x x x x xx x x x x xx x x 


e-----------------------------------------------------------------------
B--7----------------7---------------7--8--7--7--------------------------
G--9(11)(11)--------9(11)~~~-----------------9(11)------(11)(9)p7-9~~~\-
D-----------------------------------------------------------------------
A-----------------------------------------------------------------------
E-----------------------------------------------------------------------


e-----------------------------------------------------------------------
B--x-x-10(12)(10)(12)(10)(12)--(10)--12(14)(12)(14)(12)(14)--(12)-------
G--x-x------------------------------------------------------------------
D-----------------------------------------------------------------------
A-----------------------------------------------------------------------
E-----------------------------------------------------------------------

20161230

JOE BONAMASSA BRIDGE TO BETTER DAYS TAB (GUITAR SOLO, LIVE)

Joe Bonamassa plays a brilliant guitar solo from 2:03 to 3:44
On YouTube: 'Joe Bonamassa - Bridge To Better Days (Arhus Denmark - July 2009)'
Download the GP5, GP6 and PDF files below.



JOE BONAMASSA BRIDGE TO BETTER DAYS SOLO TAB

GP5 + GP6 + PDF >>

e-------------5-----------------5---------------------------------------
B-------------5-----------------5--------------5/7-x-5-5----------------
G--------------------------------------------------x--------------------
D----5-7~-------7~-----5-7~-------7~-----7p5---5/7-x-5-5---4---4-5-5-6-6
A--0--------0--------0--------0--------0-----7--------------------------
E--------------------------------------------------------x-2---2-3-3-4-4
   x        x        x        x        x


e-------------5-----------------5---------------------------------------
B-------------5-----------------5--------------5/7-x-5-5----------------
G--------------------------------------------------x--------------------
D----5-7~-------7~-----5-7~-------7~-----7p5---5/7-x-5-5---4---4-5-5-6-6
A--0--------0--------0--------0--------0-----7--------------------------
E--------------------------------------------------------x-2---2-3-3-4-4
   x        x        x        x        x


e-------------5-----------------5---------------------------------------
B-------------5-----------------5--------------5/7-x-5-5----------------
G--------------------------------------------------x--------------------
D----5-7~-------7~-----5-7~-------7~-----7p5---5/7-x-5-5---4---4-5-5-6-6
A--0--------0--------0--------0--------0-----7--------------------------
E--------------------------------------------------------x-2---2-3-3-4-4
   x        x        x        x        x



20161225

MICHAEL BUBLÉ CHRISTMAS BABY PLEASE COME HOME TAB (GUITAR SOLO)

Michael Bublé - Christmas (Baby Please Come Home)
There is a cool guitar solo at 1:18. 
Download the GP6 GP5 and/or PDF files below.



MICHAEL BUBLÉ CHRISTMAS BABY PLEASE COME HOME TAB

GP5 + GP6 + PDF >>

(1:16 - 1:33)

e-----------------------------------------------------------------------
B-----------------------------------------------------------------------
G-----------------------------------------------------------------------
D-----------------------------------------------------------------------
A-------------------------4-------4h6---4~----\-------------------------
E-----------2---4---4/6-------6-----------------------------------------


e-----------------------------------------------------------------------
B-----------7-----------------------------------------------------------
G-----------6h8---6-----------------------------------------------------
D---------------------6h8---6-------------------------------------------
A-------------------------------8\6-4~----------------------------------
E------------------------------------------6.---------------------------


e-----------------------------------------------------------------------
B-----------------------------------------------------------------------
G---------4-------------------------------------------------------------
D---------4h6p4---4~----6.----/8.----4h6p4---4~----6--\-----------------
A---------------6--------------------------6----------------------------
E-----------------------------------------------------------------------


20161104

DARIUS RUCKER HOMEGROWN HONEY TAB (ACOUSTIC)

Darius Rucker plays his original song Homegrown Honey with his friends.
Use standard tuning and put the Capo on the 2nd fret to play the lead guitar parts.
(Darius has the Capo on the 1st. - good idea )
Free Download of the Guitar Pro files !!!




DARIUS RUCKER HOMEGROWN HONEY ACOUSTIC TAB

GP5 + GP6 + PDF >>

Intro Solo                     - CAPO on the 2nd -

e-----------------------------------------------------------------------
B-----------------------------------------------------------------------
G-----------4.--6-6/8~--------------------------------------------------
D---4-4-6.--------------------------------------------------------------
A-----------------------------------------------------------------------
E-----------------------------------------------------------------------


e-----------------------------------------------------------------------
B--------------------------------7~-------------------------------------
G---------------4.--6-6/8~----------------8\6p4-------------------------
D---x-x-4-4-6.---------------------------------6~-----------------------
A-----------------------------------------------------------------------
E-----------------------------------------------------------------------


e-----------------------------------------------------------------------
B-------------------------7~--------------------------------------------
G---------------4.--6-6/8~----------------------------------------------
D---6-0-4-4-6.----------------------------------------------------------
A-----------------------------------------------------------------------
E-----------------------------------------------------------------------


20161008

ELTON JOHN CAN YOU FEEL THE LOVE TONIGHT TAB (INSTRUMENTAL GUITAR COVER BY STEPHEN PETERS)

Great instrumental guitar cover of Can You Feel The Love Tonight by Stephen Peters.
Attention: 1 step down tuning (so DGCFAD)
See the TAB under the video.



CAN YOU FEEL THE LOVE TONIGHT TAB (INSTRUMENTAL)

GP5 + GP6 + PDF >>

Part 1

D-----------------------------------------------------------------------
A-----------------------------------------------------------------------
F--------4-5---5/7\5--------------------4-5---5/7--\5~------------------
C------7---------------5-5~-----------7---------------------------------
G-----------------------------------------------------------------------
D-----------------------------------------------------------------------


D-----------------------------------------------------------------------
A-------------------6-----5h6p5-------6~-----5h6p5----------------------
F-------4-5---------------------7---5--------------7---5-7~-------------
C---7-------------5-----------------------------------------------------
G-----------------------------------------------------------------------
D-----------------------------------------------------------------------


D-----------------------------------------------------------------------
A-----------------------------------------------------------------------
F-------------------4-5---5/7-5-----------------------------------------
C---5\3\2---------7---------------5-5~----------------------------------
G---------3\2----------------------------5h7p5\3------------------------
D-------------1.-----------------------------------1--------------------



20160920

JOHN CORABI HOOLIGAN'S HOLIDAY TAB (GUITAR SOLO)


There is an awesome acoustic guitar solo in Hooligan's Holiday by John Corabi.
It starts about 2:50 in the song, played in half-step down tuning.
See the TAB under the video.



JOHN CORABI HOOLIGAN'S HOLIDAY GUITAR SOLO TAB

GP5 + GP6 + PDF >>

 ~ 2:50

eb----------------------------------------------------------------------
Bb----------------------------------------------------------------------
Gb----------------------------------------------------------------------
Db------------------3~---5(7).--5(7)(5)p3--5-3~-------------------------
Ab--------------3-5----------------------5------------------------------
Eb---1-----1-3/5--------------------------------------------------------


eb----------------------------------------------------------------------
Bb------------6~----------6-\-------------------------------------------
Gb--------5-7-5~----------5-\-------------------------------------------
Db---3-5/7--------------------------------------------------------------
Ab----------------------------------------------------------------------
Eb----------------------------------------------------------------------


eb----------------------------------------------------------------------
Bb-----13(15)-----13.-12.-11.-10--------10-11-13------------------------
Gb-------------------------------12(13)----------12(14).--10~-----------
Db----------------------------------------------------------------------
Ab----------------------------------------------------------------------
Eb----------------------------------------------------------------------


20160917

LA FUGA EN VELA TAB (GUITAR SOLO)

Great guitar solo in La Fuga - En Vela around 1:50 till around 2:20.
The solo is in F# minor played in standard tuning.
See the TAB under the video.



LA FUGA EN VELA SOLO TAB

GP5 + GP6 + PDF >>

(1:54 - 2:22)

e-----------------------------------------------------------------------
B-----------------------------------------------------------------------
G---/14----14~-------------16(18).--14~---------------------------------
D-------16--------------------------------------------------------------
A-----------------------------------------------------------------------
E-----------------------------------------------------------------------


e-----------------------------------------------------------------------
B--17(19)---17-14-17-14h17p14--14---------------------------------------
G----------------------------16--16(18)(16)p14--14-16(18)(16)p14-16-16\-
D---------------------------------------------16------------------------
A-----------------------------------------------------------------------
E-----------------------------------------------------------------------


e----------------------------------------------17(19)---17~-------------
B--------------------------------17(19).--17.---------------------------
G---------14~-------16(18).--14-----------------------------------------
D---/14h16--------------------------------------------------------------
A-----------------------------------------------------------------------
E-----------------------------------------------------------------------


20160906

JOE BONAMASSA SLOE GIN GUITAR SOLO TAB (COVER BY FLORIAN CASCIANO)


Florian Casciano plays a great cover of Joe Bonamassa - Sloe Gin guitar solo part.
See the TAB under the video.



JOE BONAMASSA SLOE GIN GUITAR SOLO TAB


e-----------------------------------------------------------------------
B-------------------------------3-----------3---3---3---3---3---3-------
G---2---------------------------0-----------0---0---0---0---0---0-------
D---2-------2---2---2---2---2---0-----------0---0---0---0---0---0-------
A---0-------0---0---0---0---0---x-----------x---x---x---x---x---x-------
E-------------------------------3-----------3---3---3---3---3---3-------


e-----------1p0-----------------------------3---------------------------
B---------3-----3p1---------1-p-0---------------0-0---------------------
G---2---2---------------0---------------0-------0-0-3-------5-----------
D---0---------------3-------------------------------3---3-3-5---5-5-----
A---------------------------------------------------1---1-1-3---3-3-----
E-----------------------------------3-----------------------------------


e-----------------------------------------------------------------------
B-------------------------------3---------------------------------------
G---2-------2-------2-----------0---------------------------------------
D---2---2---2---2---2---2---2---0---------------------------------------
A---0---0---0---0---0---0---0---x---------------------------------------
E-------------------------------3---------------------------------------


20160804

THE ROLLING STONES I'M FREE TAB (GUITAR SOLO)


There is a little guitar solo in the legendary Rolling Stones song - I'm Free.
It starts about 1:10 in this video and sounds so cool ...
See the SOLO TAB under the video.



THE ROLLING STONES I'M FREE SOLO TAB

GP5 + GP6 + PDF >>

 ~ 1:10

e-----------------------------------------------------------------------
B-----------------------------------------------------------------------
G---0h2----2----0-----0--------------------0--2p0----0----0h2.----------
D------------------2-----2p0-----------0h2--------2---------------------
A----------------------------3------------------------------------------
E-----------------------------------------------------------------------


e-----------------------------------------------------------------------
B--------1-----1--------------------------------------------------------
G---0h2-----2--0---------0h2-p0--2p0----0----0h2------------------------
D------------------------------------2----------------------------------
A-----------------------------------------------------------------------
E-----------------------------------------------------------------------


e-----------------------------------------------------------------------
B-----------------------------------------------------------------------
G---0-----0---------------2p0----0--2p0------0--------------------------
D------2-----2-------2--------2---------2-------------------------------
A---------------3-------------------------------------------------------
E-----------------------------------------------------------------------


20160803

SANTANA THE GAME OF LOVE FT. MICHELLE BRANCH TAB (GUITAR SOLO)

Carlos Santana and Michelle Branch play The Game of Love.
There is a great Santana guitar solo about 2:20.
See the Solo TAB under the video.



SANTANA THE GAME OF LOVE SOLO TAB

PDF >>

 ~ 2:20

e-----------------------------------------------------------------------
B------15.-------17(19)-----(19)(19)(19)(19)(19)(19)(19)(19)(19)(19)(19)
G---/16-----------------------------------------------------------------
D-----------------------------------------------------------------------
A-----------------------------------------------------------------------
E-----------------------------------------------------------------------


e-----------------------------------------------------------------------
B---(19)(19)(19)(19)(19)---17(19)-----(19)(19).--17.--15.---------------
G-----------------------------------------------------------------------
D-----------------------------------------------------------------------
A-----------------------------------------------------------------------
E-----------------------------------------------------------------------


e--------------------------------------15.--14h15~----14----------------
B---17-15~----15~--------h17.------------------------------15.----------
G-----------------------------------------------------------------------
D-----------------------------------------------------------------------
A-----------------------------------------------------------------------
E-----------------------------------------------------------------------


20160602

DR VIOSSY BOHEMIAN RHAPSODY FOR SOLO GUITAR TAB (QUEEN)

Dr. Viossy plays Bohemian Rhapsody for solo guitar. Brilliant fingerstyle arrangement!
It's possible to play this piece with a normal 6 string guitar as the low B string (7th string) is not being used too much. Original song by Freddie Mercury (Queen)
See the TAB under the video.


DR VIOSSY BOHEMIAN RHAPSODY FOR SOLO GUITAR TAB

GP6 + GP5 + PDF >>

e-----------------------------------------------------------------------
B---10.--10.--10.--10-------10---\--------------------------------------
G---11.--11.--11.--11-------11---\--------------------------------------
D---14.--14.--14.--14-------14---\--------------------------------------
A-----------------------------------------------------------------------
E-----------------------------------------------------------------------
B-----------------------------------------------------------------------


e-----------------------------------------------------------------------
B---10.--10---10.--10---10-7--------------------------------------------
G---11.--11---11.--11---11-8--------------------------------------------
D---13.--13---14.--13---11-9--------------------------------------------
A-----------------------------------------------------------------------
E-----------------------------------------------------------------------
B-----------------------------------------------------------------------


e-----------------------------------------------------------------------
B---9---9---9---9h10---9------------------------------------------------
G---9---9---9---9h11---9------------------------------------------------
D-----------------------------------------------------------------------
A-----------------------------------------------------------------------
E--------------------------<12>---<12>----------------------------------
B-----------------------------------------------------------------------


20160525

THE VENTURES THE HOUSE OF THE RISING SUN TAB (BASED ON THE GUITAR COVER BY AGENTMAN1991)

Nice guitar cover of The House of the Rising Sun based on how The Ventures play it.
The intro/main riff is played better on a live Ventures record - so the tab follows that version. The rest of the tab is based on this cover. All these great solos are included. Good luck :D



THE VENTURES THE HOUSE OF THE RISING SUN TAB

GP6 + GP5 + PDF >>

Part 1

e----------0----------------0----------------2----------------1---------
B-------1-----1----------1-----1----------3-----3----------1-----1------
G------2---------2------0---------0------2---------2------2---------2---
D-----2----------------2-------------0--0-------------3--3--------------
A--0----------------3---------------------------------------------------
E-----------------------------------------------------------------------


e----------0------------------------------------------------------------
B-------1-----1-------------3--1--0-------1--1-p0-----------------------
G------2---------2-------1---------------2---------2--1-----------------
D-----2-----------------0---------------2-------------0-----------------
A--0-------------------2-------------0----------------2-----------------
E-------------------0---------------------------------------------------


Part 2

e-----------------------------------------------------------------------
B-----------------------------------------------------------------------
G-----------------------------------------------------------------------
D----------------------------0h2-0--------------------------------------
A--0--0---------2--2h3~------------0-0----------------------------------
E-----------------------------------------------------------------------


20160521

RIOT V TAKE ME BACK TAB (LEAD GUITAR LINE - GUITAR PRO TAB)

Riot V - Take Me Back lead guitar line.
See the TAB under the video.



RIOT - TAKE ME BACK TAB

GP5 + GP6 + PDF >>

Intro

e-----------------------------------------------------------------------
B-----------------------------------------------------------------------
G----------------------------0---2-------5---7~-------------------------
D----------------------------0---2-------5---7~-------------------------
A---5p3p0-6p0-10-7p0-6-5p3p0-------0-0-0--------------------------------
E-----------------------------------------------------------------------
                                   x x x

e-----------------------------------------------------------------------
B----------------------------------------3------------------------------
G----------------------------0---2-------0------------------------------
D----------------------------0---2-------0------------------------------
A---5p3p0-6p0-10-7p0-6-5p3p0-------0-0-0-x------------------------------
E----------------------------------------3------------------------------
                                   x x x

e-----------------------------------------------------------------------
B-----------------------------------------------------------------------
G----------------------------0---2-------5/7-5~-------------------------
D----------------------------0---2-------5/7-5~-------------------------
A---5p3p0-6p0-10-7p0-6-5p3p0-------0-0-0--------------------------------
E-----------------------------------------------------------------------
                                   x x x


20160406

DIGIMON LA TABKI YA SAGHIRI TAB (COVER BY HIDA, لا تبكي يا صغيري ابطال الديجيتال TAB)

Digimon - La Tabki Ya Saghiri played on acoustic guitar.
Capo on 2nd fret but the guitar is tuned down 2 steps - so it's actually a normal standard tuning. See the TAB under the video.



DIGIMON LA TABKI YA SAGHIRI TAB

GP5 + GP6 + PDF >>

Part 1

e-----------5/7-5~-----------7-9-9/10-----9--\--7.--5~------7~----------
B-------5.--------------------------------------------------------------
G---4/6-----------------------------------------------------------------
D-----------------------------------------------------------------------
A-----------------------------------------------------------------------
E-----------------------------------------------------------------------


e-----------5/7-5~-----------7-9-9/10-----9-- \--7.--5~------7~----------
B-------5.--------------------------------------------------------------
G---4/6-----------------------------------------------------------------
D-----------------------------------------------------------------------
A-----------------------------------------------------------------------
E-----------------------------------------------------------------------


e---5~-----------------------------------------9/10--9.-----------------
B-------------------------------5/7-7~-------------------10-------------
G-----------------------------------------------------------9.----------
D-----------------------------------------------------------------------
A-----------------------------------------------------------------------
E-----------------------------------------------------------------------


20160320

THE ROLLING STONES STAR STAR TAB (GUITAR SOLO)

There is a great rock and roll guitar solo in Star Star by The Rolling Stones.
It starts about 2:08 on this record and finishes about 2:38.
See the solo TAB under the video.



THE ROLLING STONES STAR STAR TAB (GUITAR SOLO)

GP5 + GP6 + PDF >>

                F
e-----------------------------------------------------------------------
B-----------------------------------------------------------------------
G---12(14)---12(14)---(12)---10------12(14)-12(14)-12(14)(12)-10--------
D---------------------------------------------------------------12------
A-----------------------------------------------------------------------
E-----------------------------------------------------------------------

       C                                                   F
e-----------------------------------------------------------------------
B---13-----------------------13-----------------------------------------
G--------12(14)---(12)-10--10-----12(14)---(12)-10--10-12-(14)(12)------
D------------------------12-----------------------12--------------------
A-----------------------------------------------------------------------
E-----------------------------------------------------------------------

                                          C
e-----------------------------------------------------------------------
B-------------------------13(15)(13)-10---------------------------------
G---10-----12(14)(12)-10---------------12(14)---(12)-10--10-------------
D--------12-------------12-----------------------------12---------------
A-----------------------------------------------------------------------
E-----------------------------------------------------------------------


THE ROLLING STONES DON'T STOP TAB (SOLO)


Short video how to play the guitar solo of Don't Stop by the Rolling Stones.
Not sure but it might be Ronnie who plays it on the original record.
See the TAB under the video.



THE ROLLING STONES DON'T STOP SOLO TAB

PDF >>


e-----------------------------------------------------------------------
B-----------------------------------------------------------------------
G--------9---9h11.----9h11.----11p9------9h11p9-------------------------
D---9h11----------------------------11-9--------11-9--------------------
A-----------------------------------------------------------------------
E-----------------------------------------------------------------------


e-----------------------------------------------------------------------
B-----------------------------------------------------------------------
G----9------------------------------------------------------------------
D---x----11-9\7---9.----7h9.----9p7---7-9/11-9p7------------------------
A-----------------------------------9------------7--/-9-----------------
E-----------------------------------------------------------------------


e-----------------------------------------------------------------------
B-----------------------------------------------------------------------
G--------9---9h11.----9h11.----11p9------9h11p9-------------------------
D---9h11----------------------------11-9--------11-9--------------------
A-----------------------------------------------------------------------
E-----------------------------------------------------------------------



20160201

IN THE SUMMERTIME SLASH SOLO TAB (BILLY IDOL, SLASH, DEREK SHERINIAN VERSION)

Slash plays a great guitar solo in this song about 1:25.
In the summertime originally by Mungo Jerry.
See the solo tab under the video.



IN THE SUMMERTIME SLASH SOLO TAB

PDF >>

e----------12-----------------------------------------------------------
B--------12--15.---17~-------17p15--14-p12------------------------------
G---12h13-------------------------16------14--12h13~--------------------
D-----------------------------------------------------------------------
A-----------------------------------------------------------------------
E-----------------------------------------------------------------------


e----------12-----------------------------------------------------------
B--------12--15.--17~----17(20)----(17)-12----15-(15)(14)p12----12------
G---12h13---------------------------------14----------------14----------
D-----------------------------------------------------------------------
A-----------------------------------------------------------------------
E-----------------------------------------------------------------------


e-----------------------------------------------------------------------
B--------12---14---12-------12------------------------------------------
G---12h13---13---13---11/13---13\11p9-11--9----9------------------------
D------------------------------------------11---------------------------
A-----------------------------------------------------------------------
E-----------------------------------------------------------------------


20151106

JAMAN SPAKE REGGAE LEAD GUITAR SOLO TAB (STEEL PULSE YOUR HOUSE SOLO)

Jaman Spake plays a nice reggae guitar solo with his old Fender on the beach.
The original song is Your House by Steel Pulse.
See the TAB under the video.



JAMAN SPAKE REGGAE LEAD GUITAR SOLO TAB

GP5 + GP6 + PDF >>

e-----------------------------------------------------------------------
B------------------------------------------------7.--6.-----------------
G--------6-8-8(10)---(8)----------6--h8------------------6--------------
D-----/8------------------------8---------------------------------------
A-----------------------------------------------------------------------
E-----------------------------------------------------------------------


e------8h9p8-9/13--------------------------------6----------------------
B---/9------------------14------13-14--------------9-6------------------
G------------------------------------------------------8-6--------------
D-----------------------------------------------------------------------
A-----------------------------------------------------------------------
E-----------------------------------------------------------------------


e----------------13---------------13------------------------------------
B--------13-14------13-16---14p13------13h14p13-16---14-----------------
G---13h15---------------------------------------------------------------
D-----------------------------------------------------------------------
A-----------------------------------------------------------------------
E-----------------------------------------------------------------------


20151017

DARIUS RUCKER WAGON WHEEL TAB (COUNTRY SOLO)


Darius Rucker sings Wagon Wheel.
There is a great country guitar solo about 2:45.
See the TAB of this solo under the video.



DARIUS RUCKER WAGON WHEEL SOLO TAB

GP5 + GP6 + PDF >>

e-----------------------------------------------------------------------
B-----------------------------------------------------------------------
G-----------------------------------------------------------------------
D------------------------------4(6)-----(4)-2.--------------------------
A---------0-2(4)-----(2)-0.---------------------------------------------
E---0h2-----------------------------------------------------------------


e-----------------------------------------------------------------------
B--------------------------5---5----------------------------------------
G---------2-4---2-4(6)-----------(6)-----(4)-----2.---------------------
D---2/4-----------------------------------------------------------------
A-----------------------------------------------------------------------
E-----------------------------------------------------------------------


e---5-----5-------------------------------------------------------------
B---5h7---5-------------------------------------------------------------
G-------------6\4-----2---------4-4---4---------------------------------
D-------------------------4/6-----------6\4---2-------------------------
A-----------------------------------------------------------------------
E-----------------------------------------------------------------------