Showing posts with label solo. Show all posts
Showing posts with label solo. Show all posts

20150719

ERIC CLAPTON COCAINE TAB (SOLO LIVE AT 2004 CROSSROADS GUITAR FESTIVAL)

Eric Clapton's live Cocaine solo from 2004 Crossroads Guitar Festival.
It starts at 1:14 ... enjoy.
See the TAB under the video.



ERIC CLAPTON COCAINE SOLO TAB

PDF >>

(1:14)

e-----------------------------------------------------------------------
B---17(19)--------------------------------------------------------------
G-----------------------------------------------------------------------
D-----------------------------------------------------------------------
A-----------------------------------------------------------------------
E-----------------------------------------------------------------------


e-----------------------------------------------------------------------
B---17(19)---(17)(19)---17(19)------17.-17~-----------15--15~---h17.----
G-------------------------------------------------------16--------------
D-----------------------------------------------------------------------
A-----------------------------------------------------------------------
E-----------------------------------------------------------------------


e-----------------------------------------------------------------12~---
B------------------12-15-12-----------------------------12-15(17)-------
G-------12-14-(16)----------14(16)-14p12--14--12-14(16)-----------------
D---/14---------------------------------14--14--------------------------
A-----------------------------------------------------------------------
E-----------------------------------------------------------------------



20150608

ERIC CLAPTON "CROSSROADS" TAB (SOLO)

Eric Clapton "Crossroads" - says the original video title.
There are 2 brilliant solo parts in this version - with that white Fender Stratocaster.
See the TAB under the video.



ERIC CLAPTON "CROSSROADS" SOLO TAB

PDF >>

Solo 1   (1:55)

e-----------------------------------------------------------------------
B---------13h15-13---------------13--15-13----------13.-----------------
G---///-----------14-14~---14~-----14-----14-14~------------------------
D-----------------------------------------------------------------------
A-----------------------------------------------------------------------
E-----------------------------------------------------------------------


e-----------------------------------------------------------------------
B---15(17)---(15)(17)-------15-13-15.--15'--13'-------------------------
G-----------------------------------------------------------------------
D-----------------------------------------------------------------------
A-----------------------------------------------------------------------
E-----------------------------------------------------------------------


e-----------------------------------------------------------------------
B---8-5-----------------------------------------------------------------
G-------7.--5---------------------5.------------------------------------
D-------------7-5---5h7-7~---7~-----------------------------------------
A-----------------7-----------------------------------------------------
E-----------------------------------------------------------------------


20150412

THE NIGHTRUNNERS IDYLLE TAB (COVER BY GIORGIO ZIZZO)

Giorgio Zizzo plays Idylle by The Nightrunners.
Great guitar instrumental song.
See the TAB under the video.


THE NIGHTRUNNERS IDYLLE TAB

PDF >>

Chords

  A      F#m      Bm      E       D       Dm      B       E7     F7
e-0-------2-------2-------0-------2-------1-------2---------------------
B-2-------2-------3-------0-------3-------3-------4-------5------6------
G-2-------2-------4-------1-------2-------2-------4-------7------8------
D-2-------4-------4-------2-------0-------0-------4-------6------7------
A-0-------4-------2-------2-----------------------2-------7------8------
E---------2---------------0---------------------------------------------



Part 1
                    A                                   F#m       Bm
e-----9-7---5-----------------------------9-7---5-----------------------
B-5-----------7---5-------------------5-----------7---5-7.--7~----------
G-------------------6---6~----------------------------------------------
D-----------------------------------------------------------------------
A-----------------------------------------------------------------------
E-----------------------------------------------------------------------

                      E                                 A    D    A
e-----10-9---7------------------------------9---7-9---7-5~--------------
B-7------------10---7-9.--9~--------------9-----------------------------
G-------------------------------------9---------------------------------
D-----------------------------------------------------------------------
A-----------------------------------------------------------------------
E-----------------------------------------------------------------------



20150406

ERIC CLAPTON TOP 10 LIVE LAYLA SOLOS TAB (SOLO #3)

Here we go ... the TOP 10 live Layla solos by sir Eric Clapton.
Solo #3 starts about 9:05 in the video.
See the TAB below.



ERIC CLAPTON TOP 10 LAYLA SOLOS TAB

PDF >>

Solo #3

e-----------------------------------------------------------------------
B----15~---15~---15~---15~---17-(18)-17~---15---------------------------
G---------------------------------------------17-14~-----\\\---///------
D-----------------------------------------------------------------------
A-----------------------------------------------------------------------
E-----------------------------------------------------------------------


e-----------------------------------------------------------------------
B----18(22)--------(18)-15.-15~-------15-18-15--18-15--18-15--18-15-----
G-----------------------------------17--------17-----17-----17-----17---
D-----------------------------------------------------------------------
A-----------------------------------------------------------------------
E-----------------------------------------------------------------------


e-----------------------------------------------------------------------
B-18-15--18-15--18-15--17-15--18-15--17-15--18-15--17-15--17(18)(17)----
G------17-----17-----17-----17-----17-----17-----17-----17--------------
D-----------------------------------------------------------------------
A-----------------------------------------------------------------------
E-----------------------------------------------------------------------



20150301

TRACY CHAPMAN AND ERIC CLAPTON GIVE ME ONE REASON TAB (MAIN GUITAR SOLO)

Great version of Give Me One Reason by Tracy Chapman and Eric Clapton.
Brilliant Eric Clapton solo around 2:10.
See the TAB under the video.


ERIC CLAPTON GIVE ME ONE REASON SOLO TAB

PDF >>

Solo ~ 2:13

e-----------------------------------------------------------------------
B-------10.--12.--12(14)-10'--------------------------------------------
G-/11--------------------------11~--------------------------------------
D-----------------------------------------------------------------------
A-----------------------------------------------------------------------
E-----------------------------------------------------------------------


e-----------------------------------------------------------------------
B-12(14)--------------------12(14)--------------------------------------
G-----------------------------------------------------------------------
D-----------------------------------------------------------------------
A-----------------------------------------------------------------------
E-----------------------------------------------------------------------


e-----------------------------------------------------------------------
B-12(14)-------12(14)-------12~----p10----------------10.---------------
G--------------------------------------11---11~-------------------------
D-----------------------------------------------------------------------
A-----------------------------------------------------------------------
E-----------------------------------------------------------------------


20150131

RADE SERBEDZIJA MENI SE DUSO OD TEBE NE RASTAJE TAB

Beautiful song from Croatia. Rade Serbedzija - Meni Se Duso Od Tebe Ne Rastaje.
Great solo parts and a nice chord progression with a single acoustic guitar.
See the TAB under the video.




RADE SERBEDZIJA MENI SE DUSO OD TEBE NE RASTAJE TAB

PDF >>

Solo 1

  D               G                       D
e-----------------------------------------------------------------------
B-2/3---------3---5---3-----------2/3-----------------------------------
G--------------------------------------4--2--------------4---2----------
D----------------------------------------------------3/4---4------------
A-----------------------------------------------------------------------
E-----------------------------------------------------------------------

      G                                           D
e-----------------------------------------------------------------------
B-2/3-3---3--3---------5--5/7--7----------3--5--5/7--5--3---------------
G-----------------------------------------------------------------------
D-----------------------------------------------------------------------
A-----------------------------------------------------------------------
E-----------------------------------------------------------------------


e-----------------------------------------------------------------------
B-3--5--7---5h7p5--3----------------------------------------------------
G-----------------------------------------------------------------------
D-----------------------------------------------------------------------
A-----------------------------------------------------------------------
E-----------------------------------------------------------------------

20150111

THE RYDERS SECRET LOVE TAB (LIVE IN TILBURG 2010)


The Ryders play a brilliant instrumental version of Secret Love live in Tilburg.
The lead guitarist is called Kurt Fröberg.
See the TAB of the lead guitar line and the chords here.



THE RYDERS SECRET LOVE TAB

PDF >>

Part 1

  A
e-----------------------------------------------------------------------
B-----------------------------------------------------------------------
G-----------------------------------------------------------------------
D-----2-2-----2-2-----2-2-----2-2-----2-2-----2-2-----2-2---------------
A-0---------------0---------------0---------------0---------------------
E---------0---------------0---------------0---------------0-------------
  x   x x x   x x x   x x x   x x x   x x x   x x x   x x x

  A
e-----------------------------------------------------------------------
B-----------------------------------------------------------------------
G-----------------------------------------------------------------------
D-1h2---1/2-----------0h2p0---------------------------------------------
A---------------------------4---0---2---4-------------------------------
E-------------------------------------------0---------------------------

  A                                   Bm     E
e-----------------------------------------------------------------------
B-----------------------------------------------------------------------
G-----------------------------------------------------------------------
D-------------------------0---2---4-------------------------------------
A-----0-----------2---4---------------2---------------------------------
E-0---------------------------------------------------------------------


20141130

WYCLEF JEAN ERIC CLAPTON WONDERFUL TONIGHT TAB (SOLOS PLAYED LIVE IN CARNEGIE HALL)

Great version of Wonderful Tonight played by Wyclef Jean and Eric Clapton live at Carnegie Hall. Nice and easy guitar playing with the special Fender Stratocaster.
See all the lead guitar parts TAB under the video.


WYCLEF JEAN ERIC CLAPTON WONDERFUL TONIGHT TAB

PDF >>

Intro solo (0:27)

e-----------------------------------------------------------------------
B-----10(12)-(10)(12)(10)p8.--10~-----------------------8h10p8~---------
G-7.------------------------------------------------7-9-----------------
D-----------------------------------------------------------------------
A-----------------------------------------------------------------------
E-----------------------------------------------------------------------


e-----------------------------------------------------------------------
B-----8.--10(12).--(12)(10)p8-----8~------10-8---8~--10.--8~----\-------
G-7-9-------------------------9.------9.-------9------------------------
D-----------------------------------------------------------------------
A-----------------------------------------------------------------------
E-----------------------------------------------------------------------


e-----------------------------------------------------------------------
B-----10(12)-(10)(12)(10)p8---10~---------------------------------------
G-7--------------------------------------7.-----------------------------
D-----------------------------------------------------------------------
A-----------------------------------------------------------------------
E-----------------------------------------------------------------------

THE ROLLING STONES DEAD FLOWERS TAB (MAIN SOLO PART)

Brilliant Keith Richards guitar solo on the '71 album in the middle of Dead Flowers.
There are some cool lead parts throughout the whole song, the main solo is at 2:35.
The great thing is that Keith Richards only uses one pentatonic scale.
See the solo TAB under the video.


THE ROLLING STONES DEAD FLOWERS SOLO TAB

PDF >>

2:35
        D                       A             G                  D
e------------------7----------------------------------------------------
B--------------------10-----------------------10------------------------
G-----7-9(11)-----------(11)(9)-----------7------(11)(9)p7-9-7---7~-----
D-7h9---------------------------------7h9---9------------------9--------
A-----------------------------------------------------------------------
E-----------------------------------------------------------------------

                                      A
e---------10------------------------------------------------------------
B------------10(12)---10-8-10-------------------------------------------
G-----7-----------------------9(11)---7---7-7~--------------------------
D-7h9---9-------------------------------9-------------------------------
A-----------------------------------------------------------------------
E-----------------------------------------------------------------------

        G                      D
e-----------------------------------------------------------------------
B-------10--------------------------------------------------------------
G-----7----(11)(9)p7-9-7---7~-------------------------------------------
D-7h9--------------------9----------------------------------------------
A-----------------------------------------------------------------------
E-----------------------------------------------------------------------


20141115

CAT EYE AUTUMN LEAVES TAB (LEAD GUITAR PARTS)


Finally found the name of the song I discovered earlier in a great mix by Tekiu.
There are some great lead guitar parts at 3:22, at 4:13 and then later at 5:04.
See the TAB of these brilliant guitar solos under the video.



CAT EYE AUTUMN LEAVES TAB

PDF >>

Solo at 3:22

e---8-10-11.--10-8.-----------------------------------------------------
B-8------------------11.--13~-------------8-11.--9-8.--11.--------------
G---------------------------------------8-------------------8h10~-------
D------------------------------------10---------------------------------
A-----------------------------------------------------------------------
E-----------------------------------------------------------------------


e-----------------------------------------------------------------------
B-----------------------------------------------------------------------
G------8.--8------------------------------------------------------------
D-8h10-------10----------8.--8------------------------------------------
A-------------------8h10-------8~---------------------------------------
E-----------------------------------------------------------------------


e---8-10-11.--10-8.-----------------------------------------------------
B-8------------------11.--13~-------------8-11.--9-8.--11.--------------
G---------------------------------------8-------------------8h10~-------
D------------------------------------10---------------------------------
A-----------------------------------------------------------------------
E-----------------------------------------------------------------------


20141005

KENNY CHESNEY ANYTHING BUT MINE SOLO TAB

There is a brilliant lead guitar part at 3:16 in Anything But Mine by Kenny Chesney.
The solo has been transcribed according to the official album version.
See the TAB under the video.



KENNY CHESNEY ANYTHING BUT MINE SOLO TAB

GP5 + GP6 + PDF >>

e--------------------12------------------------9------------------------
B-12(14)----------------(14)---(12)p9------------12-9-------------------
G-------------------------------------11(13)----------(13)(11)p9~-----\-
D-----------------------------------------------------------------------
A-----------------------------------------------------------------------
E-----------------------------------------------------------------------


e-----------------------------------------------------------------------
B-----------------12h14p12----------------12----------------------------
G------9h11-11/13----------13\11p9-11(13)----(13)(11)~------------------
D-9h11------------------------------------------------------------------
A-----------------------------------------------------------------------
E-----------------------------------------------------------------------


e-----------------12-----------12-----------12-----------12-----------12
B--------------12-----------12-----------12-----------12-----------12---
G-/14-14(16)---------14(16)-------14(16)-------14(16)-------14(16)------
D-----------------------------------------------------------------------
A-----------------------------------------------------------------------
E-----------------------------------------------------------------------


20140908

JULIETTE VALDURIEZ LOST PARADISE TAB

Lost Paradise played by Juliette Valduriez.
Incredible lead guitar playing - will definitely kill you at 0:35.
See the TAB under the video.



JULIETTE VALDURIEZ LOST PARADISE TAB

PDF >>

Clean part

e---------------------------------------------------0-----0---0-0-------
B-------------------------5---5-0---------3---------2-----2---2-2-------
G---------0---------------5---5-0-----0-0---0-2-----2-2---2---2-2-------
D-------4-----------------5---5-0---4---------2-------2---2---2-2-------
A-----7-------3-------3---3---3---5-----------0-------0---0---0-0-------
E-0---------------------------------------------------------------------


e---------------------------------------------------0-----0---0-0-------
B-------------------------5---5-0---------3---------2-----2---2-2-------
G---------0---------------5---5-0-----0-----0-2-----2-2---2---2-2-------
D-------4-----------------5---5-0---4---4-----2-------2---2---2-2-------
A-----7-------3-------3---3---3---5-----------0-------0---0---0-0-------
E-0---------------------------------------------------------------------


e---------------------------------------------------0-----0---0-0-------
B-------------------------5---5-0---------3---------2-----2---2-2-------
G---------0---------------5---5-0-----0-----0-2-----2-2---2---2-2-------
D-------4-----------------5---5-0---4---4-----2-------2---2---2-2-------
A-----7-------3-------3---3---3---5-----------0-------0---0---0-0-------
E-0---------------------------------------------------------------------


20140803

THOMAS75S BLUES SOLO TAB (GP5 GP6 PDF)


Thomas75s plays a cool blues guitar solo - in the key of A - with a Gibson LesPaul.
The original video title says only "Blues Solo" - "messing around with some bluesy stuff".
See the TAB under the video.



THOMAS75S BLUES SOLO TAB

GP5 + GP6 + PDF >> 

  A
e----------------------5------------------------------------------------
B-8(10)~-----------------8p5--------------------------------------------
G----------------------------7-5'---------------------------------------
D----------------------------------7.-----------------------------------
A-----------------------------------------------------------------------
E-----------------------------------------------------------------------


e-----5-8p5-7p5---------------------5.----------------------------------
B---5-----------8p5-8p5-------------------------------------------------
G-6---------------------8p7p5---5h6-------------------------------------
D-----------------------------7-----------------------------------------
A-----------------------------------------------------------------------
E-----------------------------------------------------------------------
  x x x


  D7                                                A
e-----------------------------------------------------------------------
B-------3-----------3-----------3-----------x-5'------------------------
G-------------5~----------5~----------5-----x-5'------------------------
D-2/4-----4-----------4-----------4---------x-------7---7.--------------
A-----------------------------------------------------------------------
E-----------------------------------------------------------------------


20140707

LENNY KRAVITZ IT AIN'T OVER TILL IT'S OVER TAB (SOLO COVER BY BRYAN CHANG)

Bryan Chang shows from very close how to play the solo part of this Lenny Kravitz song. There are also a few nice chords in the song.
See the TAB under the video.


LENNY KRAVITZ IT AIN'T OVER TILL IT'S OVER TAB

PDF >>

Solo

  A            B
e---------------------------16.-----------------------------------------
B-19(21)-------19.--19-19.-------19~---\\\------------------------------
G-----------------------------------------------------------------------
D-----------------------------------------------------------------------
A-----------------------------------------------------------------------
E-----------------------------------------------------------------------

           A                                  B
e-----------------------------------------------------------------------
B-------17~-----------------------------------------------14.-----------
G-16-18--------18-\\\-----------16(18)-------16.--16-16.-------16~---\\\
D-----------------------------------------------------------------------
A-----------------------------------------------------------------------
E-----------------------------------------------------------------------

               A
e-----------------------------------------------------------------------
B--------------9.--9-9.-------10(12)-----10.--9-------------------------
G-11(13)-----------------11.--------------------11.---------------------
D-----------------------------------------------------------------------
A-----------------------------------------------------------------------
E-----------------------------------------------------------------------


20140618

BLACK LABEL SOCIETY QUEEN OF SORROW TAB (LIVE ACOUSTIC VERSION AT GUITAR CENTER)

Black Label Society - Queen of Sorrow played live at Guitar Center.
Both - Zakk's and Nick's guitar in the background - are tuned one step down.
See the TAB of Zakk Wylde's awesome playing under the video.



BLACK LABEL SOCIETY QUEEN OF SORROW TAB

PDF >>

Chords

  Fm     G#     Eb     C#
d-3------x------1------3------------------------------------------------
A-3------3------1------4------------------------------------------------
F-3------3------2------3------------------------------------------------
C-5------3------3------5------------------------------------------------
G-5------5------3------6------------------------------------------------
D-3------6------1------x------------------------------------------------


Nick plays some chords a little different

  G#     C#         C#
d-x------x----------x---------------------------------------------------
A-3------4----------8---------------------------------------------------
F-3------3--- or ---8---------------------------------------------------
C-3------1----------8---------------------------------------------------
G-1------1----------6---------------------------------------------------
D-x------x----------x---------------------------------------------------


Solo

d-----------------------------------------------------------------------
A-------------------------------------------6---6h8-6~------------------
F--------------3---5/7.--5~-------5-3-5/7-----7-------------------------
C-3h5~---5-3-5---5------------------------------------------------------
G-----------------------------------------------------------------------
D-----------------------------------------------------------------------


20140514

THE ROLLING STONES SYMPATHY FOR THE DEVIL SOLO TAB (GET YER YA-YA'S OUT)

Keith Richards & Mick Taylor's guitar solo in Sympathy For The Devil.
This particular solo is on the Get Yer Ya-Ya's Out album.
See the TAB under the video.



ROLLING STONES SYMPATHY FOR THE DEVIL SOLO TAB

PDF >>

Part 1

e-----------------------------------------------------------------------
B-----------------------------------------------------------------------
G-----------------------------------------------------------------------
D--------------------------5--------------------------5h7~--------------
A----------------------7--------------------------7---------------------
E-0---------------------------------------------------------------------


e-----------------------------------------------------------------------
B-----------------------------------------------------------------------
G-----------------------------------------------------------------------
D--------7-5------------------------------------------------------------
A----------------7~-----------------------------------------------------
E-----------------------------------------------------------------------


e-----------------------------------------------------------------------
B-----------------------------------------------------------------------
G-----------------------------------------------------------------------
D---------------------------------5'-------------------5h7~-------------
A-------------------/7.--/7.--7.-------------------7--------------------
E-///7.-----------------------------------------------------------------


20140401

ERIC CLAPTON OLD LOVE SOLO TAB (LIVE AT ROYAL ALBERT HALL 1990)

Eric Clapton plays Old Love at Royal Albert Hall in 1990.
The original video title says: 'Eric Clapton Old Love 24 Nights Royal Albert Hall 1990'
There are 2 awesome guitar solos by 4:30 and by 8:44 till the end.
See the TAB of these solos under the video.


ERIC CLAPTON OLD LOVE SOLO TAB

PDF >>

Solo by 4:30

e-----------------------------------------------------------------------
B-15(17)---------------~~~~~--------------------------------------------
G-----------------------------------------------------------------------
D-----------------------------------------------------------------------
A-----------------------------------------------------------------------
E-----------------------------------------------------------------------


e-----------------------------------------------------------------------
B-(17)(15)p13-15.--15.--15.--15.--15(17)--------(15)p13-----------------
G-------------------------------------------------------14-14-14--\\\---
D-----------------------------------------------------------------------
A-----------------------------------------------------------------------
E-----------------------------------------------------------------------


e-----------------------------------------------------------------------
B-13---15---13h15p13-12---13---12h13p12---------------------------------
G---------------------------------------14-12-14-12---------------------
D---------------------------------------------------14\12p10------------
A------------------------------------------------------------12-12~-----
E-----------------------------------------------------------------------


20140310

SUMMER HOLIDAY TAB (COVER BY BURNS ERNST)


Burns Ernst plays a solo guitar cover of Summer Holiday by Cliff Richard.
He uses and old, red Fender Stratocaster.
See the TAB under the video.



SUMMER HOLIDAY TAB

PDF >>

Part 1

e-----------------------------------------------------------------------
B-----------------------------------------------------------------------
G-------4-----2---1-------------------1---------------------------------
D-------------------4---2---------4-----4---2---------------------------
A-2-------------------------------------------4-------------------------
E-----------------------------------------------------------------------


e-----------------------------------------------------------------------
B-----------------------------------------------------------------------
G-----4-2---1-----------1-2---------------------------------------------
D-------------4---2-----------4-----------------------------------------
A-2.--------------------------------------------------------------------
E-----------------------------------------------------------------------


e-----------------------------------------------------------------------
B-----------------------------------------------------------------------
G-------4-----2---1-------------------1---------------------------------
D-------------------4---2---------4-----4---2-----2---------------------
A-2-------------------------------------------4-------------------------
E-----------------------------------------------------------------------


20140306

JANA GANA MANA THE INDIAN NATIONAL ANTHEM TAB (COVER BY TAKAR NABAM)


Takar Nabam plays the Indian National Anthem (Jana Gana Mana) with a classical guitar. See the TAB under the video.



THE INDIAN NATIONAL ANTHEM TAB

PDF >>

e---0-2-2-2---2-2-2---2-2-0-2-3---2---2-2-0---0-0---0-2-----------------
B-3-------3-------3-------3-------3-------2-------2---3-------3---------
G-2-------2-------2-------0-------2-------2-----------2-----------------
D-0-------------------------------0-------------------0-----------------
A---------4-------2-----------------------0-------0---------------------
E-------------------------3---------------------------------------------


e-5---5-5-5---5-4-5---5-5-4-7-5---3---3-3-3---3-2---3-2-----------------
B-3-------3-------3---------------3-------3-------3---3-----------------
G---------------------------------0-------3-----------------------------
D-----------------------------------------5-----------0-----------------
A-5-------4-------2-------0-----------------------0---------------------
E---------------------------------3-------------------------------------


e-2---2-2-2---2-0-5-5-5---3---3---2---2-2-0-0-0-0---0-------------------
B-3-------1-------3-3-3---3-----3-3-------2-------2---3-----------------
G-2-------2---------------0-------2-------2-----------------------------
D-0-------0---------------2-------0-------------------0-----------------
A-------------------------3---------------0-------0---------------------
E-----------------3-----3-----------------------------------------------


20140223

WHAT A WONDERFUL WORLD TAB (FINGERSTYLE COVER BY KIMIYOSHI AKIYAMA)

Kimiyoshi Akiyama plays a great fingerstyle guitar cover of What A Wonderful World.
Unfortunately we can't see his left hand ...
He is playing in Dropped D tuning (that is DADGBE)
See the TAB under the video.


WHAT A WONDERFUL WORLD FINGERSTYLE TAB

GP5 + GP6 + PDF >> 

Part 1

e-------------2-----------------------3---------------------------------
B---------3-------3---------------5-------5-----------------------------
G-----2---------------2-------4---------------4-------------------------
D-0-----------------------0---------------------------------------------
A-----------------------------------------------------------------------
D-----------------------------------------------------------------------


e-------------5-----------------------3---------------------------------
B---------7-------7---------------5-------5-----------------------------
G-----6---------------6-------4---------------4-------------------------
D-0-----------------------0---------------------------------------------
A-----------------------------------------------------------------------
D-----------------------------------------------------------------------


e-------------2-----------------------3---------------------------------
B---------3-------3---------------5-------5-----------------------------
G-----2---------------2-------4---------------4-------------------------
D-0-----------------------0---------------------------------------------
A-----------------------------------------------------------------------
D-----------------------------------------------------------------------