Showing posts with label solos. Show all posts
Showing posts with label solos. Show all posts

20161104

DARIUS RUCKER HOMEGROWN HONEY TAB (ACOUSTIC)

Darius Rucker plays his original song Homegrown Honey with his friends.
Use standard tuning and put the Capo on the 2nd fret to play the lead guitar parts.
(Darius has the Capo on the 1st. - good idea )
Free Download of the Guitar Pro files !!!




DARIUS RUCKER HOMEGROWN HONEY ACOUSTIC TAB

GP5 + GP6 + PDF >>

Intro Solo                     - CAPO on the 2nd -

e-----------------------------------------------------------------------
B-----------------------------------------------------------------------
G-----------4.--6-6/8~--------------------------------------------------
D---4-4-6.--------------------------------------------------------------
A-----------------------------------------------------------------------
E-----------------------------------------------------------------------


e-----------------------------------------------------------------------
B--------------------------------7~-------------------------------------
G---------------4.--6-6/8~----------------8\6p4-------------------------
D---x-x-4-4-6.---------------------------------6~-----------------------
A-----------------------------------------------------------------------
E-----------------------------------------------------------------------


e-----------------------------------------------------------------------
B-------------------------7~--------------------------------------------
G---------------4.--6-6/8~----------------------------------------------
D---6-0-4-4-6.----------------------------------------------------------
A-----------------------------------------------------------------------
E-----------------------------------------------------------------------


20140401

ERIC CLAPTON OLD LOVE SOLO TAB (LIVE AT ROYAL ALBERT HALL 1990)

Eric Clapton plays Old Love at Royal Albert Hall in 1990.
The original video title says: 'Eric Clapton Old Love 24 Nights Royal Albert Hall 1990'
There are 2 awesome guitar solos by 4:30 and by 8:44 till the end.
See the TAB of these solos under the video.


ERIC CLAPTON OLD LOVE SOLO TAB

PDF >>

Solo by 4:30

e-----------------------------------------------------------------------
B-15(17)---------------~~~~~--------------------------------------------
G-----------------------------------------------------------------------
D-----------------------------------------------------------------------
A-----------------------------------------------------------------------
E-----------------------------------------------------------------------


e-----------------------------------------------------------------------
B-(17)(15)p13-15.--15.--15.--15.--15(17)--------(15)p13-----------------
G-------------------------------------------------------14-14-14--\\\---
D-----------------------------------------------------------------------
A-----------------------------------------------------------------------
E-----------------------------------------------------------------------


e-----------------------------------------------------------------------
B-13---15---13h15p13-12---13---12h13p12---------------------------------
G---------------------------------------14-12-14-12---------------------
D---------------------------------------------------14\12p10------------
A------------------------------------------------------------12-12~-----
E-----------------------------------------------------------------------


20130827

CARLOS SANTANA OYE COMO VA TAB



Carlos Santana - Oye Como Va guitar tab according to the album version.



CARLOS SANTANA OYE COMO VA TAB                  

PDF >>

Intro solo

e-5.---5-7-8-10.---7----------------------------------------------------
B--------------------8h10-----------------------------------------------
G-----------------------------------------------------------------------
D-----------------------------------------------------------------------
A-----------------------------------------------------------------------
E-----------------------------------------------------------------------


e-5.---5-7-8-10---7-----5-----------------------------------------------
B---------------------8-------------------------------------------------
G-------------------------7(8)(7)-5.------------------------------------
D-----------------------------------------------------------------------
A-----------------------------------------------------------------------
E-----------------------------------------------------------------------


20130724

GREEN DAY OH LOVE TAB

There is an awesome guitar solo in Green Day - Oh Love. The first half is played by Billie Joe, the other part is played by the new guitarist, Jason White. In the video we show you how to play the solo part with normal speed and then slower too.
TAB of the complete song below.



GREEN DAY OH LOVE TAB

PDF >>

Intro

e-----------------------------------------------------------------------
B-----------------------------------------------------------------------
G-------------------------------6---------------------------------------
D-x-x-6---6---x-------x-------x-6-----6---6---x-------x-------x---------
A-x-x-6---6---x-------x-------x-4-----6---6---x-------x-------x---------
E-x-x-4---4---x-------x-------x-------4---4---x-------x-------x---------


e-----------------------------------------------------------------------
B-----------------------------------------------------------------------
G-6-------6-----6-6---6---6---6-6---------------------------6-----------
D-6-------6-----6-6---6---6---6-6-6---6---x-------x-------x-6-----------
A-4-------4-----4-4---4---4---4-4-6---6---x-------x-------x-4-----------
E---------------------------------4---4---x-------x-------x-------------

20130428

JIMMY BUFFET BAMA BREEZE TAB (SOLOS)

There are three awesome guitar solos in Jimmy Buffet - Bama Breeze.
One in the beginning, the main solo and another one at the end.
Use a CAPO on the 1st fret to play the chords.



JIMMY BUFFET BAMA BREEZE TAB

PDF >>

Intro solo

e-----------------------------------------------------------------------
B-11(13)------(13)(11)---10---------------------------------------------
G-----------------------------12~-----10~-----10/12-----12h14------10---
D-----------------------------------------------------------------------
A-----------------------------------------------------------------------
E-----------------------------------------------------------------------



Solo 1

e-----------------------------------------------------------------------
B-----------------------------------------------------------------------
G-----------------10/12---10------12(14)------12---10\9h10-12-----------
D-10/12---10------------------------------------------------------------
A-----------------------------------------------------------------------
E-----------------------------------------------------------------------


20130104

DIRE STRAITS SULTANS OF SWING TAB (SOLOS)

Dire Straits - Sultans Of Swing guitar solo played with a Fender Stratocaster.
This is probably the most popular Mark Knopfler guitar solo.This video shows only the first solo, but you'll find another video below that shows both solos a half note lower than the original. See the TAB of the 2 solos below.




DIRE STRAITS SULTANS OF SWING TAB

PDF >>

Solo 1

e-----------------------------------------------------------------------
B-----------------------------------------------------------------------
G-12(14)~-----12(14)-12(14)-12(14)------10h12p10------9h10p9------------
D-----------------------------------------------------------------------
A-----------------------------------------------------------------------
E-----------------------------------------------------------------------


e------------------------------10---12(13)------(12)-10-----------------
B-------------------------10-----------------------------10-------------
G--------------------10--------------------------------------10---------
D---------------11-----------------------------------------------12-----
A--------<12>-----------------------------------------------------------
E-<12>------------------------------------------------------------------


e-----------------------------------------------------------------------
B---10-13~------11h13p11-------9/10-------11.--------9/10---10~---------
G---------------------------------------x----------x--------------------
D-----------------------------------------------------------------------
A-----------------------------------------------------------------------
E-----------------------------------------------------------------------