Showing posts with label song. Show all posts
Showing posts with label song. Show all posts

20150318

MIKE POSS ROMANTIC GUITAR INSTRUMENTAL TAB


Mike Poss playing a great Romantic Guitar Instrumental song.
He is using a custom made Explorer guitar - made by Joe Weber.
See the TAB under the video. (2nd guitar line included)



MIKE POSS ROMANTIC GUITAR INSTRUMENTAL TAB

GP5 + GP6 + PDF >>

Part 1

e-----------------------------------------------------------------------
B-----------------------------------------------------------------------
G------------14---------------9---------------4-/-6---------------------
D-------11----------------7---------------2-------------------7---6-----
A---9-------------9.--5-----------5.--0-------------------7-------------
E-----------------------------------------------------0-----------------


e-----------------------------------------------------------------------
B-----------------------------------------------------------------------
G------------14---------------9---------------4-/-6---------------------
D-------11----------------7---------------2-------------------4-/-6-----
A---9-------------9.--5-----------5.--0-------------------2-------------
E-----------------------------------------------------0-----------------


e-----------------------------------------------------------------------
B-----------------------------------------------------------------------
G------------14---------------9---------------4-/-6---------------------
D-------11----------------7---------------2-------------------7---6-----
A---9-------------9.--5-----------5.--0-------------------7-------------
E-----------------------------------------------------0-----------------


20140219

THE LORD OF THE RINGS THEME TAB (CLASSICAL COVER BY MRDREADSOUL)

MrDreadSoul plays the Lord of the Rings theme on classical guitar.
The original piece was composed by Howard Shore.
See the TAB under the video.



THE LORD OF THE RINGS THEME TAB                   

PDF >>

Part 1

e-1---------1---------10-------------------12---------------------------
B-3-------3---3-------10----10----------10---------------10.------------
G-2-------------------10-12----------12-------------12------------------
D-0-------------------0-------------------------------------------------
A------------------------------------------0----------------------------
E-------------3---------------------------------------------------------


e-----------------------------------------------------------------------
B-6--6--6--6--6--6--8--8--8--8--8--8------------------------------------
G-7-----------------0---------------------------------------------------
D-7---------------------------------------------------------------------
A-5-----------------10--------------------------------------------------
E-----------------------------------------------------------------------


e-5--5--5--5--5--5--7--7--7--7--7--7------------------------------------
B-6-----------------7---------------------------------------------------
G-7-----------------7---------------------------------------------------
D-----------------------------------------------------------------------
A-5---------------------------------------------------------------------
E-------------------7---------------------------------------------------


20131227

GAME OF THRONES THEME TAB (ACOUSTIC GUITAR COVER BY CHARLIE PARRA DEL RIEGO)

Game of Thrones theme song played by Charlie Parra del Riego.
Awesome acoustic cover with a 2nd guitar line in the background.
Download the TAB below.



GAME OF THRONES THEME ACOUSTIC GUITAR TAB

GP5 + GP6 + PDF >>

Part 1

e-----------------------------------------------------------------------
B-----------------------------------------------------------------------
G-----------------------------------------------------------------------
D-7-------3-5-7-------3-5-7-------3-5-7-------3-5-----------------------
A-----5-----------5-----------5-----------5-----------------------------
E-----------------------------------------------------------------------


e-----------------------------------------------------------------------
B-----------------------------------------------------------------------
G-----------------------------------------------------------------------
D-7-------4-5-7-------4-5-7-------4-5-7.--------------------------------
A-----5-----------5-----------5-----------------------------------------
E-----------------------------------------------------------------------


Part 2

e-----------------------------------------------------------------------
B-----------------------------------------------------------------------
G-----------------------------------------------------------------------
D-7-----------------------3-5-7---------------3-5-----------------------
A-------------5-----------------------5---------------------------------
E-----------------------------------------------------------------------


20131220

FARMVILLE THEME GUITAR TAB (COVER BY ALVIN DELEON)

Alvin De Leon plays a nice fingerstyle guitar cover of the Farmville theme.
See the TAB under the video. Capo on the 1st and '-1-' means the open string.
Original melody by Steve Kirk.



FARMVILLE THEME TAB

PDF >>

e-------------3/5-----8.------------------------5-3---------------------
B-------6.------------------10------------------------6-----------------
G-------5.--------------------------10----------------------------------
D-----7--------------------------10------10-----------------------------
A-----------------------------------------------------------------------
E-1-----------3/5-----------10--------------1-----5---------------------


e-3---------------------------------------------------------------------
B-----3-6.--6-10--------------------------------------------------------
G--------------------10.--10-------10-----8-----5---6-------------------
D--------------------------------7------1-7-----------------------------
A-----------------------------------------8-----------------------------
E-3-----------8--------------1------------------------------------------


e-----------------------------------------------------------------------
B-----6-----8/9\8---6-------------8.----7-------------------------------
G-7-----7-------------6---5-------5.----5-------------------------------
D---------------------------------7.----7-------------------------------
A-1-------------1-----------------------5-------------------------------
E---------------------------1-------------------------------------------


20130811

OTTMAR LIEBERT BARCELONA NIGHTS TAB

Ottmar Liebert plays Barcelona Nights live with Luna Negra.
Great flamenco guitar song to learn.
TAB below helps to learn this song.



OTTMAR LIEBERT BARCELONA NIGHTS TAB                

PDF >>

Intro

e----7.---8-7---------7-------------------------7-----------8-----------
B-10------------10.-------8-\-----------8-10.-----10---8.-------10-\----
G-----------------------------------------------------------------------
D-----------------------------------------------------------------------
A-----------------------------------------------------------------------
E-----------------------------------------------------------------------


e----7.---8-7--------7-\----------------3-------------------------------
B-10------------10----------------------3-------------------------------
G---------------------------------------4-------------------------------
D---------------------------------------5-------------------------------
A---------------------------------------5-------------------------------
E---------------------------------------3-------------------------------


20130728

PINK PANTHER THEME TAB (GUITAR COVER BY CHIHAB EL KHACHAB)

Chichab El Khachab's guitar cover of the Pink Panther Theme song.  The only thing you'll need to play this song is an acoustic guitar and your fingers =D
TAB below helps to play that song like him.



PINK PANTHER THEME TAB

PDF >>

e-----------13---------13----------13------13---13---13---13---13-------
B----------12-------------12---------12-----12---12---12---12---12------
G---------15-----------------15--------15----15---15---15---15---15-----
D--------14---------------------14-------14---14---14---14---14---14----
A-----------------------------------------------------------------------
E-0---------------------------------------------------------------------


e-13---13---13------13--------------------------------------------------
B--12---12----12--------------------------------------------------------
G---15---15-----15------------------------------------------------------
D----14---14------14----------------------------------------------------
A-----------------------------------------------------------------------
E-----------------------------------------------------------------------


20130430

CHAMARRITA (TERCEIRA) TAB

Chamarrita Ilha da Terceira is a portuguese folklore song played with a special  
15 strings!!! guitar. However it is tuned and played like a normal acoustic guitar it sounds cool because of the extra strings. Many thanks for the idea.
TAB below.


CHAMARRITA (TERCEIRA) TAB

PDF >>

e-------------9-9--12-12--9------------12---10---9---12--12-12-12-12-12-
B------10-10------------------10----------------------------------------
G-9-9------------------------------9------------------------------------
D-----------------------------------------------------------------------
A-------------------------0------------0--------------------------------
E----------------------------------------------------0------------------


e-0---7--------------12--10--10-10-12-12-9-----------------9---12-------
B---------9----------------------------------10-------10----------------
G-------------9-----------------------------------9---------------------
D-----------------------------------------------------------------------
A----------------------------------------0------------0-----------------
E-0-----------0----------0----------------------------------------------


20121128

PIRATES OF THE CARIBBEAN THEME SONG TAB (HE'S A PIRATE GUITAR COVER BY HEMO)

Great guitar cover of the Pirates of the Caribbean theme song played by HEMO.
In the background there is a rhythm guitar line too.
See the TAB under the video.


THE PIRATES OF THE CARIBBEAN THEME GUITAR TAB (HE'S A PIRATE)

GP5 + GP6 + PDF >>


e-----------------------------------------------------------------------
B-----------------------------------------------------------------------
G----------------------------------------------------7------------------
D----------------------------------------------------x------------------
A-5---5-5---5-5---5-5-5-5---5---5-5---5-5---5-5-5-5--5------------------
E-----------------------------------------------------------------------
  x   x x   x x   x x x x   x   x x   x x   x x x x

e-----------------------------------------------------------------------
B----------------5-6---6---6-8-5---5------------------------------------
G----5-7---7---7-----------------------7-5-5h7--------------------------
D-/7--------------------------------------------------------------------
A-----------------------------------------------------------------------
E-----------------------------------------------------------------------


e-----------------------------------------------------------------------
B---------------5-6---6---6-8-5---5-------------------------------------
G---5-7---7---7-----------------------7-5-7-----------------------------
D-7---------------------------------------------------------------------
A-----------------------------------------------------------------------
E-----------------------------------------------------------------------


20121127

THE GODFATHER THEME GUITAR TAB (ACOUSTIC COVER BY KYÖSTI RAUTIO)


Great acoustic guitar cover of the Godfather theme song played by Kyösti Rautio.
See the TAB under the video.



THE GODFATHER THEME ACOUSTIC GUITAR TAB

GP5 + GP6 + PDF >>

Part 1

e-----------------0---3---0---2---0-------------------------------------
B-----5-/-8---7---------------1-------1-/-3---5---------------5---------
G-4---------------------------2-------------------4-------4-------------
D-----------------------------------------------------5-----------------
A-----------------------------------------------------------------------
E-------------0---------------0---------------0-------------------------


e-----------------0---3---0---2---0-------------------------------------
B-----5-/-8---7---------------0-------0---------------------------------
G-4---------------------------0-----------0---2-------------------------
D-------------------------------------------------2-------2-------------
A---------------------------------------------0-------3-------0---------
E-------------0---------------3-----------------------------------------


e-------------------------------------------------------------0---------
B---------4---7---------------7-------------------0-------0-------------
G-2-/-5-----------5-------5-----------5-/-8---9-------0-----------------
D---------------------7-----------7-------------------------------------
A-------------0---------------------------------------------------------
E---------------------------------------------0-------------------------