Showing posts with label spotnicks. Show all posts
Showing posts with label spotnicks. Show all posts

20170115

THE SPOTNICKS KARELIA TAB (GUITAR PRO - 1966)


The Spotnicks - Karelia from 1966. Lead guitar line.
Download the Guitar Pro Tab below.



THE SPOTNICKS KARELIA TAB

GP5 + GP6 + PDF >>

e----------5----------------------3----------------------1--------------
B-------5----------5-----------3----------3-----------1----------1------
G-----5--------------5.------4--------------4.------2--------------2.---
D-----------------------------------------------------------------------
A-----------------------------------------------------------------------
E-----------------------------------------------------------------------


e---0-------0---0---0-----0---------------------------------------------
B---0---------------------------0---1-----1-0-------0-------------------
G---1-----------------------2-------------------2-----------------------
D-----------------------------------------------------------------------
A-----------------------------------------------------------------------
E-----------------------------------------------------------------------


e-----1---1---0-----0---------------------------------------------------
B---0-----------------0---1---3---3--3-1.--0.---------------------------
G----------------------------------------------2------------------------
D-----------------------------------------------------------------------
A-----------------------------------------------------------------------
E-----------------------------------------------------------------------


20130119

SPOTNICKS JOHNNY GUITAR TAB (COVER BY BURNS ERNST)

BurnsErnst plays a perfect cover of the legendary Johnny Guitar by The Spotnicks.
He is using an old Fender Stratocaster that sounds cool.
Use the tremolo bar to make it more exciting. TAB below.



SPOTNICKS JOHNNY GUITAR TAB

PDF >>

Intro

e-------------0--------0-1/3------1-1-3-1h3p1-0-------------------------
B-----0-0-1-1--------3--------------------------------------------------
G-2-2-------------------------------------------------------------------
D-----------------------------------------------------------------------
A-----------------------------------------------------------------------
E-----------------------------------------------------------------------


e-------------0--------0-1/5------3\---0--------------------------------
B-----0-0-1-1--------3--------------------------------------------------
G-2-2-------------------------------------------------------------------
D-----------------------------------------------------------------------
A-----------------------------------------------------------------------
E-----------------------------------------------------------------------


e-0-5-7-8--8-8-8--8--------8-7-5-8--8-8-8--8--------8-7-5-8\---0--------
B-----------------------------------------------------------------------
G-----------------------------------------------------------------------
D-----------------------------------------------------------------------
A-----------------------------------------------------------------------
E-----------------------------------------------------------------------