Showing posts with label star star. Show all posts
Showing posts with label star star. Show all posts

20160320

THE ROLLING STONES STAR STAR TAB (GUITAR SOLO)

There is a great rock and roll guitar solo in Star Star by The Rolling Stones.
It starts about 2:08 on this record and finishes about 2:38.
See the solo TAB under the video.



THE ROLLING STONES STAR STAR TAB (GUITAR SOLO)

GP5 + GP6 + PDF >>

                F
e-----------------------------------------------------------------------
B-----------------------------------------------------------------------
G---12(14)---12(14)---(12)---10------12(14)-12(14)-12(14)(12)-10--------
D---------------------------------------------------------------12------
A-----------------------------------------------------------------------
E-----------------------------------------------------------------------

       C                                                   F
e-----------------------------------------------------------------------
B---13-----------------------13-----------------------------------------
G--------12(14)---(12)-10--10-----12(14)---(12)-10--10-12-(14)(12)------
D------------------------12-----------------------12--------------------
A-----------------------------------------------------------------------
E-----------------------------------------------------------------------

                                          C
e-----------------------------------------------------------------------
B-------------------------13(15)(13)-10---------------------------------
G---10-----12(14)(12)-10---------------12(14)---(12)-10--10-------------
D--------12-------------12-----------------------------12---------------
A-----------------------------------------------------------------------
E-----------------------------------------------------------------------