Showing posts with label stephen peters. Show all posts
Showing posts with label stephen peters. Show all posts

20161008

ELTON JOHN CAN YOU FEEL THE LOVE TONIGHT TAB (INSTRUMENTAL GUITAR COVER BY STEPHEN PETERS)

Great instrumental guitar cover of Can You Feel The Love Tonight by Stephen Peters.
Attention: 1 step down tuning (so DGCFAD)
See the TAB under the video.



CAN YOU FEEL THE LOVE TONIGHT TAB (INSTRUMENTAL)

PDF >>

GP5 + GP6 >>

Part 1

D-----------------------------------------------------------------------
A-----------------------------------------------------------------------
F--------4-5---5/7\5--------------------4-5---5/7--\5~------------------
C------7---------------5-5~-----------7---------------------------------
G-----------------------------------------------------------------------
D-----------------------------------------------------------------------


D-----------------------------------------------------------------------
A-------------------6-----5h6p5-------6~-----5h6p5----------------------
F-------4-5---------------------7---5--------------7---5-7~-------------
C---7-------------5-----------------------------------------------------
G-----------------------------------------------------------------------
D-----------------------------------------------------------------------


D-----------------------------------------------------------------------
A-----------------------------------------------------------------------
F-------------------4-5---5/7-5-----------------------------------------
C---5\3\2---------7---------------5-5~----------------------------------
G---------3\2----------------------------5h7p5\3------------------------
D-------------1.-----------------------------------1--------------------