Showing posts with label steve terreberry. Show all posts
Showing posts with label steve terreberry. Show all posts

20170801

STEVE TERREBERRY CARELESS WHISPER TAB (SOLO)


Steve Terreberry plays an instrumental cover of Careless Whisper by George Michael.
There is a cool solo at 2:40 and it goes until about 3:30.
Download this guitar solo tab below.



STEVE TERREBERRY CARELESS WHISPER SOLO TAB

GP5 + GP6 + PDF >>

Solo 

e---20(22)-----20(22)-----20(22)~~~-----------------(22)(20)-17-18------
B-----------------------------------------------------------------------
G-----------------------------------------------------------------------
D-----------------------------------------------------------------------
A-----------------------------------------------------------------------
E-----------------------------------------------------------------------


e---20-18-17--17-18-20-18-17--17-18-20-18-17--17-18-20-18-17--17-18-----
B-----------20--------------20--------------20--------------20----------
G-----------------------------------------------------------------------
D-----------------------------------------------------------------------
A-----------------------------------------------------------------------
E-----------------------------------------------------------------------


e---20-18-17--17-18-20-18-17--17-18-20-18-17--17-18-20-18-17--17--------
B-----------20--------------20--------------20--------------20--20------
G-----------------------------------------------------------------------
D-----------------------------------------------------------------------
A-----------------------------------------------------------------------
E-----------------------------------------------------------------------