Showing posts with label streets of london. Show all posts
Showing posts with label streets of london. Show all posts

20170128

ROGER DYKE STREETS OF LONDON TAB (INSTRUMENTAL GUITAR COVER)

Roger Dyke plays an instrumental guitar cover of Streets of London.
Original song by Ralph McTell.
Download the Guitar Pro Tab below.



ROGER DYKE STREETS OF LONDON TAB

GP5 + GP6 + PDF >>

#1

e---13/14---14~----14-12-10.---9~---------------------------------------
B---14/15---15~----15-14-12.--10~---------------------------------------
G-----------------------------------------------------------------------
D-----------------------------------------------------------------------
A-----------------------------------------------------------------------
E-----------------------------------------------------------------------


e---6/7---7~----7-5-3---3/5~--------------------------------------------
B---7/8---8~----8-7-5---5/7~--------------------------------------------
G-----------------------------------------------------------------------
D-----------------------------------------------------------------------
A-----------------------------------------------------------------------
E-----------------------------------------------------------------------


e---13/14---14~----14-12-10.---9~---------------------------------------
B---14/15---15~----15-14-12.--10~---------------------------------------
G-----------------------------------------------------------------------
D-----------------------------------------------------------------------
A-----------------------------------------------------------------------
E-----------------------------------------------------------------------