Showing posts with label tab. Show all posts
Showing posts with label tab. Show all posts

20170115

THE SPOTNICKS KARELIA TAB (GUITAR PRO - 1966)


The Spotnicks - Karelia from 1966. Lead guitar line.
Download the Guitar Pro Tab below.



THE SPOTNICKS KARELIA TAB

PDF >>

GP5 + GP6 >>

e----------5----------------------3----------------------1--------------
B-------5----------5-----------3----------3-----------1----------1------
G-----5--------------5.------4--------------4.------2--------------2.---
D-----------------------------------------------------------------------
A-----------------------------------------------------------------------
E-----------------------------------------------------------------------


e---0-------0---0---0-----0---------------------------------------------
B---0---------------------------0---1-----1-0-------0-------------------
G---1-----------------------2-------------------2-----------------------
D-----------------------------------------------------------------------
A-----------------------------------------------------------------------
E-----------------------------------------------------------------------


e-----1---1---0-----0---------------------------------------------------
B---0-----------------0---1---3---3--3-1.--0.---------------------------
G----------------------------------------------2------------------------
D-----------------------------------------------------------------------
A-----------------------------------------------------------------------
E-----------------------------------------------------------------------


20170110

GEORGE HARRISON SOMETHING TAB (INSTRUMENTAL GUITAR COVER BY CAUE LOBO)

Caue Lobo plays an instrumental guitar cover of Something by George Harrison.
Sounds amazing!
Download the Guitar Pro Tab below.



GEORGE HARRISON SOMETHING TAB

PDF >>

GP5 + GP6 >>

Part 1

e-----------------------------------------------------------------------
B-----------------------------------------------------------------------
G------2.--(5)(4)-2.--3-------4-----------------------------------------
D-----------------------------------------------------------------------
A-----------------------------------------------------------------------
E-----------------------------------------------------------------------


e-----------------------------------------------------------------------
B-----------------------------------------------------------------------
G---4/5---5-------5~----------5---4~------------------------------------
D---------------------------5-------------------------------------------
A-----------------------------------------------------------------------
E-----------------------------------------------------------------------


e-----------------------------------------------------------------------
B-----------------------------------------------------------------------
G---5\3-3-3.--3.--5.--5/7-----5.--5-------------------------------------
D----------------------------------5h7~----------\----------------------
A-----------------------------------------------------------------------
E-----------------------------------------------------------------------



20170105

YOU'LL NEVER WALK ALONE TAB (INSTRUMENTAL GUITAR COVER BY NEVILLE WORTHINGTON)

Neville Worthington plays an instrumental guitar cover of You'll Never Walk Alone.
The original song was written by Rogers and Hammerstein.
Download the Guitar Pro 6, GP5 and PDF files below.



YOU'LL NEVER WALK ALONE INSTRUMENTAL TAB

PDF >>

e-----------------------------------------------------------------------
B-----------------------------------------------------------------------
G-----------------------------------------------------------------------
D---2---0--------------------2---0--------------------------------------
A---------3------------------------3------------------------------------
E-----------------------------------------------------------------------


e-----------------------------------------------------------------------
B-----------------------------------------------------------------------
G-----------------------------------------------------------------------
D---2---3-5-----------------2-----0-------------------------------------
A-----------------------------------------------------------------------
E-----------------------------------------------------------------------


e-----------------------------------------------------------------------
B-----------------------------------------------------------------------
G-----------------------------------------------------------------------
D---2-3-----------------5---3-2-----------------5---2-0-----------------
A-----------------------------------------------------------------------
E-----------------------------------------------------------------------


20161230

JOE BONAMASSA BRIDGE TO BETTER DAYS TAB (GUITAR SOLO, LIVE)

Joe Bonamassa plays a brilliant guitar solo from 2:03 to 3:44
On YouTube: 'Joe Bonamassa - Bridge To Better Days (Arhus Denmark - July 2009)'
Download the GP5, GP6 and PDF files below.



JOE BONAMASSA BRIDGE TO BETTER DAYS SOLO TAB

PDF >>

GP5 + GP6 >>

e-------------5-----------------5---------------------------------------
B-------------5-----------------5--------------5/7-x-5-5----------------
G--------------------------------------------------x--------------------
D----5-7~-------7~-----5-7~-------7~-----7p5---5/7-x-5-5---4---4-5-5-6-6
A--0--------0--------0--------0--------0-----7--------------------------
E--------------------------------------------------------x-2---2-3-3-4-4
   x        x        x        x        x


e-------------5-----------------5---------------------------------------
B-------------5-----------------5--------------5/7-x-5-5----------------
G--------------------------------------------------x--------------------
D----5-7~-------7~-----5-7~-------7~-----7p5---5/7-x-5-5---4---4-5-5-6-6
A--0--------0--------0--------0--------0-----7--------------------------
E--------------------------------------------------------x-2---2-3-3-4-4
   x        x        x        x        x


e-------------5-----------------5---------------------------------------
B-------------5-----------------5--------------5/7-x-5-5----------------
G--------------------------------------------------x--------------------
D----5-7~-------7~-----5-7~-------7~-----7p5---5/7-x-5-5---4---4-5-5-6-6
A--0--------0--------0--------0--------0-----7--------------------------
E--------------------------------------------------------x-2---2-3-3-4-4
   x        x        x        x        x



20161225

MICHAEL BUBLÉ CHRISTMAS BABY PLEASE COME HOME TAB (GUITAR SOLO)

Michael Bublé - Christmas (Baby Please Come Home)
There is a cool guitar solo at 1:18. 
Download the GP6 GP5 and/or PDF files below.



MICHAEL BUBLÉ CHRISTMAS BABY PLEASE COME HOME TAB

GP5 + GP6 + PDF >>

(1:16 - 1:33)

e-----------------------------------------------------------------------
B-----------------------------------------------------------------------
G-----------------------------------------------------------------------
D-----------------------------------------------------------------------
A-------------------------4-------4h6---4~----\-------------------------
E-----------2---4---4/6-------6-----------------------------------------


e-----------------------------------------------------------------------
B-----------7-----------------------------------------------------------
G-----------6h8---6-----------------------------------------------------
D---------------------6h8---6-------------------------------------------
A-------------------------------8\6-4~----------------------------------
E------------------------------------------6.---------------------------


e-----------------------------------------------------------------------
B-----------------------------------------------------------------------
G---------4-------------------------------------------------------------
D---------4h6p4---4~----6.----/8.----4h6p4---4~----6--\-----------------
A---------------6--------------------------6----------------------------
E-----------------------------------------------------------------------


20161221

CELINO ROMERO LA PALOMA 2 TAB (CLASSICAL GUITAR COVER)

Celino Romero plays La Paloma 2, very nice classical guitar cover.
He is using Dropped D tuning.
Download the Guitar Pro tab below.



CELINO ROMERO LA PALOMA 2 TAB

PDF >>

GP5 + GP6 >>

e-----------------------------------------------------------------------
B-----------------------------------------------------------------------
G-----------------------------------------------------------------------
D------------0-----------------0-----------------0----------------------
A----------0-----0-----------0-----0-----------0-----0------------------
D--0-----------------0-----------------0--------------------------------
   x       x x   x   x       x x   x   x       x x   x


e-----------------------------------------------------------------------
B-----------------------------------------------------------------------
G-----------------------------------------------------------------------
D------------0---4-/-7~---------------------------------9~--------------
A----------0-----------------0-5.--0-------9---10-12--0-----------------
D--0-----------------0-----------------0--------------------------------
   x       x x


e-----------------------------------------------------------------------
B-----------------------------------------------------------------------
G-----------------------------------------------------------------------
D----11~---12-9-11----7---7\5--------------------------------<7>--------
A-------------------0---------------0-4.--7.-------------<7>------------
D--0-------------------------------------------<7>----------------------


20161215

DHALIF ALI A THOUSAND YEARS TAB (INSTRUMENTAL GUITAR COVER OF CHRISTINA PERRI'S SONG)

Dhalif Ali (dhalif) plays an instrumental guitar cover of A Thousand Years.
The original song is played by Christina Perri.
Download the Guitar Pro Tab below.



DHALIF ALI A THOUSAND YEARS TAB

PDF >>

GP5 + GP6 >>

Verse

e-----------------------------------------------------------------------
B-----------------------------------------------------------------------
G-----------------------------------------------------------------------
D---8~----------------------8~----------10/12--\10--p8------------------
A---------------------------------------x-------------------------------
E-----------------------------------------------------------------------


e-----------------------------------------------------------------------
B-----------------------------------------------------------------------
G---------------------------------------8/10--p8\7----------------------
D---8~----------------------8~----------x-------------------------------
A-----------------------------------------------------------------------
E-----------------------------------------------------------------------


e-----------------------------------------------------------------------
B-----------------------------------------------------------------------
G----------------10--p8\7-----------------------------------------------
D---8------------x------------10----/12-----7~--/-8---------------------
A---------8h10~---------------------------------------------------------
E-----------------------------------------------------------------------


20161209

AA BONDY I'M SO LONESOME I COULD CRY TAB (HANK WILLIAMS SONG)

AA Bondy plays I'm So Lonesome I Could Cry by Hank Williams.
Very nice fingerpicking and a harp solo. Standard tuning + CAPO on the 2nd.
See the TAB under the video.



AA BONDY I'M SO LONESOME I COULD CRY TAB

PDF >>

Intro                   - Capo on the 2nd -

e-------------0---------------------------------------------------------
B---1-----------------1-------0-----0h1-------0-------1-------1---------
G---------0-------0-------0-------0-------0-------0-------0-------0-----
D-------2-------2-------2-------2-------2-------2-------2-------2-------
A---3---------------3---------------3---------------3-------------------
E-----------3---------------3---------------3---------------3-----------


e-------------------------3p0-----------------0-----3---0-----0---------
B-----1-----3p1---1-------------3p1-----1-------------------3-----------
G---------2-----2-----0-------0-----0-----0-------0-------0-------0-----
D-------3-------3-------2-------2-------2-------2-------2-------2-------
A-------------------3-------3-------3-------3-------3-------3-----------
E---1-------1-----------------------------------------------------------


e-------3-----3-----1-------------------------0---------------0---------
B-----------------0-----------------1---------------0h1-----------------
G-------------------------0-------0-------0-------0-------0-------------
D-------0-------0-------0-------0-------2-------2-------2-------2-------
A---------------------------0h2-----3---------------3-------------------
E---3-------3-------3-----------------------3---------------3-----------



20161201

DOROTHY AFTER MIDNIGHT TAB (LIVE IN AUSTIN, 2015 #JAMINTHEVAN)


Live performance of Dorothy - After Midnight. Powerful song !!!
Standard tuning. Have fun :)



DOROTHY AFTER MIDNIGHT TAB

PDF >>


e-----------------------------------------------------------------------
B-----------------------------------------------------------------------
G---6-4~----------------------------------------------------------------
D-----------4-2'--------------------------------------------------------
A-----------------------------------------------------------------------
E-----------------------------------------------------------------------


Verse

e-----------------------------------------------------------------------
B-----------------------------------------------------------------------
G-----------------------------------------------------------------------
D---6-6.--6-------\------------------6-6.--6-------\--------------------
A---4-4.--4-------\------------------4-4.--4-------\--------------------
E---4-4.--4-------\------------------4-4.--4-------\--------------------


e-----------------------------------------------------------------------
B-----------------------------------------------------------------------
G----------------------------------------------------6-4~---------------
D---6-6.--6-------\------------------4-4-----4---4-4---------4-2'-------
A---4-4.--4-------\------------------2-2-----2---2-2--------------------
E---4-4.--4-------\------------------2-2-----2---2-2--------------------


20161123

THE SHADOWS SLEEPWALK TAB (ROCK ON WITH THE SHADOWS, 1961)

Sleepwalk is a legendary song from Hank Marvin and The Shadows.
The tablature follows the record on the album "Rock on with the Shadows" from 1961.
Enjoy it !



THE SHADOWS SLEEPWALK TAB

PDF >>

GP5 + GP6 >>

Part 1
                                tremolo
e--------------12/15~---------------------------15.---------------------
B------------13---------------------------------------------------------
G------12-14-----------------12-(11)-(12)~-----------12~----------------
D-----------------------------------------------------------------------
A-----------------------------------------------------------------------
E-----------------------------------------------------------------------

                         tremolo
e-----------------------------------------------------------------------
B---------13-13~-------8-(7)-(8)~---------------------------------------
G---12-14---------------------------------------------------------------
D-----------------------------------------------------------------------
A-----------------------------------------------------------------------
E-----------------------------------------------------------------------


e--------------------8~-------------------------------------------------
B---6-8-8h9-8~---6\5-----------8---8~-----------------------------------
G-----------------------------------------------------------------------
D-----------------------------------------------------------------------
A-----------------------------------------------------------------------
E-----------------------------------------------------------------------


20161121

THE SHADOWS SLEEPWALK TAB (LIVE FROM THE FINAL TOUR 2004)

The Shadows - Sleepwalk - live version from The Final Tour (2004)
Probably sounds better than the original record.
Lead guitar line + chords below.



THE SHADOWS SLEEPWALK TAB (LIVE)

PDF >>

GP5 + GP6 >>

Part 1
                            tremolo
e------------15~---15~--------------------------------------------------
B---------13------------------------------------------------------------
G---12/14----------------12-(11)-(12)~----------------------------------
D-----------------------------------------------------------------------
A-----------------------------------------------------------------------
E-----------------------------------------------------------------------

       tremolo
e-----------------------------------------------------------------------
B---13-(12)-(13)~------8---8~-------------------------------------------
G-----------------------------------------------------------------------
D-----------------------------------------------------------------------
A-----------------------------------------------------------------------
E-----------------------------------------------------------------------

                                   tremolo
e------------------------8~---------------------------------------------
B---6-8-8(9)---(8)---6\5---------8-(7)-(8)~-----------------------------
G-----------------------------------------------------------------------
D-----------------------------------------------------------------------
A-----------------------------------------------------------------------
E-----------------------------------------------------------------------


20161117

SAILOR'S HORNPIPE TAB (TENOR GUITAR COVER BY DAVID HANSEN)

David Hansen plays Sailor's Hornpipe on his tenor guitar.
The tuning is GDAE (from the lower to the higher string)
See the TAB below.




SAILOR'S HORNPIPE TAB

GP5 + GP6 + PDF >>

E---3--2-3.--------------------3.--3---2--3-----------------------------
A--------------------5--3-2--5------------------------------------------
D------------5.--5.-----------------------------------------------------
G-----------------------------------------------------------------------


E---5.----------5--3-2.----------0--2-----------------------------------
A-------0---0------------5.--5------------------------------------------
D-----------------------------------------------------------------------
G-----------------------------------------------------------------------


E---3--2-0----0---------------------------------------------------------
A-----------5----5-3--2-3--2-0----0-------------------------------------
D-------------------------------5----5-4--2-----------------------------
G-----------------------------------------------------------------------


E-----------------------------------3--2--------------------------------
A-----------0----2-0--3-2-----------------------------------------------
D---0--5-4----5-------------5.--5.--------------------------------------
G-----------------------------------------------------------------------


20161114

THE ROCKY ROAD TO DUBLIN TAB (INSTRUMENTAL TENOR GUITAR COVER BY DAVID HANSEN)

David Hansen plays The Rocky Road To Dublin on his tenor guitar.
The tuning is GDAE (from the lower to the higher string)
See the TAB below.



THE ROCKY ROAD TO DUBLIN TAB

GP5 + GP6 + PDF >>

E---0-1-0--------------------------0-1-0--------------------------------
A---------5-3-2-0------0-0--2-3--5-------5--3-0--3-2-------0-2-3-5------
D-------------------2---------------------------------5-5---------------
G-----------------------------------------------------------------------


E---0-1-0--------------------------0-1-0--------------------------------
A---------5-3-2-0------0-0--2-3--5-------5--3-0--3-2-------0-2-3-5------
D-------------------2---------------------------------5-5---------------
G-----------------------------------------------------------------------


E---0--5-5--2-3---0--5-5----------0--5-5--2-3.-0------------------------
A-------------------------0-2-3-5----------------5--2----0-2-3-5--------
D-----------------------------------------------------5-----------------
G-----------------------------------------------------------------------


E---0--5-5--2-3---0--5-5----------0--5-5--2-3.-0------------------------
A-------------------------0-2-3-5----------------5--2----0-2-3-5--------
D-----------------------------------------------------5-----------------
G-----------------------------------------------------------------------



20161110

ROY ORBISON ONLY THE LONELY TAB (INSTRUMENTAL GUITAR COVER PLAYED BY ERIC)

Eric plays Only The Lonely by Roy Orbison with his Fender Stratocaster.
Great instrumental guitar cover.
See the TAB under the video.



ONLY THE LONELY INSTRUMENTAL TAB

PDF >>

Original intro

e-----------------------------------------------------------------------
B-----------------------------------------------------------------------
G-------0---2--------------------------------0---2----------------------
D---3------------------------------------3-----------0~----0~-----------
A---------------3~----3~------------------------------------------------
E-----------------------------------------------------------------------


e-----------------------------------------------------------------------
B-----------------------------------------------------------------------
G-------0---2---0-------------0-----------------------------------------
D---3-------------3-2-3~-------3-2~------2-3---5-5-3~-------------------
A-----------------------------------------------------------------------
E-----------------------------------------------------------------------


e-----------------------------------------------------------------------
B-----------------------------------------------------------------------
G-----------------------------------------------------------------------
D---2-3---5-5-3~--------------------------------------------------------
A-----------------------------------------------------------------------
E-----------------------------------------------------------------------



20161105

ZORBA THE GREEK TAB (FINGERSTYLE COVER BY CACHO TIRAO)

Zorba the Greek (Zorba el Griego) played by the great Cacho Tirao.
Awesome fingerstyle version from a live TV show.
See the TAB under the video.


CACHO TIRAO ZORBA THE GREEK TAB

PDF >>

GP5 + GP6 >>

Part 1

e---------5.--------------5.--------------5.--------------5.------------
B---------5.--------------5.--------------5.--------------5.------------
G---------6.--------------6.--------------6.--------------6.------------
D-----------------------------------------------------------------------
A-0.------------------------------0.------------------------------------
E-----------------0.------------------------------0.--------------------


e-----------------------------------------------------------------------
B-4/5~------5.--------------5-----4/5~------5.--------------5-----------
G-----------6.--------------6---------------6.--------------6-----------
D-----------7.--------------7---------------7.--------------7-----------
A-0.------------------------------0.------------------------------------
E-------------------0.------------------------------0.------------------


e-----------------------------------------------------------------------
B-7p5-4-4/5~------5.--------------5-----4/5~------5.---------------5.---
G-----------------6.--------------6---------------6.---------------6.---
D-----------------7.--------------7---------------7.---------------7.---
A-------0.------------------------------0.------------------------------
E-------------------------0.-------------------------------0.-----------


20161104

DARIUS RUCKER HOMEGROWN HONEY TAB (ACOUSTIC)

Darius Rucker plays his original song Homegrown Honey with his friends.
Use standard tuning and put the Capo on the 2nd fret to play the lead guitar parts.
(Darius has the Capo on the 1st. - good idea )
Free Download of the Guitar Pro files !!!




DARIUS RUCKER HOMEGROWN HONEY ACOUSTIC TAB

GP5 + GP6 + PDF >>

Intro Solo                     - CAPO on the 2nd -

e-----------------------------------------------------------------------
B-----------------------------------------------------------------------
G-----------4.--6-6/8~--------------------------------------------------
D---4-4-6.--------------------------------------------------------------
A-----------------------------------------------------------------------
E-----------------------------------------------------------------------


e-----------------------------------------------------------------------
B--------------------------------7~-------------------------------------
G---------------4.--6-6/8~----------------8\6p4-------------------------
D---x-x-4-4-6.---------------------------------6~-----------------------
A-----------------------------------------------------------------------
E-----------------------------------------------------------------------


e-----------------------------------------------------------------------
B-------------------------7~--------------------------------------------
G---------------4.--6-6/8~----------------------------------------------
D---6-0-4-4-6.----------------------------------------------------------
A-----------------------------------------------------------------------
E-----------------------------------------------------------------------


20161030

EMMA'S LULLABY TAB (KENZIE NIMMO & HARRIS HELLER ORIGINAL ONE-TAKE)

Kenzie Nimmo & Harris Heller sing Emma's Lullaby.
Standard tuning with Capo on the 3rd fret.
See the TAB under the video.



KENZIE NIMMO & HARRIS HELLER EMMA'S LULLABY TAB

GP5 + GP6 + PDF >>

Intro                        CAPO on the 3rd

e-----------------------------------------------------------------------
B-------3-----3---------3-----3-----------------------------------------
G-----0-----0-----0---0-----0-----0-------------------------------------
D-----------------------------------------------------------------------
A---3-----3-----3---3-----3-----3---------------------------------------
E-----------------------------------------------------------------------


Verse

e-----------------------------------------------------------------------
B-------3-----3---------3-----3---------3-----3---------3-----3---------
G-----0-----0-----0---0-----0-----0---0-----0-----0---2-----2-----0-----
D-----------------------------------------------------------------------
A---3-----3-----3---3-----3-----3---------------------------------------
E-----------------------------------3-----3-----3---2-----2-----2-------


e-----------------------------------------------------------------------
B-------3-----3---------3-----3---------3-----3---------3-----3---------
G-----0-----0-----0---2-----2-----0---0-----0-----0---0-----0-----0-----
D-----------------------------------------------------------------------
A-----------------------------------3-----3-----3---3-----3-----3-------
E---0-----0-----0---2-----2-----2---------------------------------------


20161025

PINK FLOYD COMFORTABLY NUMB TAB (ELECTRIC GUITAR COVER BY KFIR OCHAION)

Kfir Ochaion plays an instrumental guitar cover of Comfortably Numb by Pink Floyd.
Great lead guitar playing with a nice Stratocaster.
See the TAB under the video. (0:00 - 1:54)



KFIR OCHAION COMFORTABLY NUMB TAB

GP5 + GP6 + PDF >>

Part 1

e-----------------------------------------------------------------------
B-----------------------------------------------------------------------
G-------------------------------2---------------------------------------
D---2-2/4~--------------------------------------------------------------
A-----------------------5-2---------4~----------------------------------
E-------------------2-5-----5-2-----------------------------------------
                    x x     x x

e-----------------------------------------------------------------------
B-----------------------------------------------------------------------
G-----------------------------------------------------------------------
D-----4p2-----4-----------------------------4-4~---2/4~-----------------
A---------5-2---5~------------------2p0-2-------------------------------
E---5-------------------------------------------------------------------
    x

e-----------------------------------------------------------------------
B-----------------------------------------------------------------------
G-----------------------------------2-----------------------------------
D---2/4-4~--------4~------------------2~--------------------------------
A-----------------------------0-4-0-------------4~----------------------
E-----------------------------------------------------------------------
                              x x x 



20161020

BOB DYLAN BOOTS OF SPANISH LEATHER TAB (COVER BY FLORBIN)

Great cover by Florbin, he sings Bob Dylan's Boots of Spanish Leather.
Standard tuning + CAPO on the 3rd fret.
See the TAB under the video.


BOB DYLAN BOOTS OF SPANISH LEATHER TAB

GP5 + GP6 + PDF >>

Intro                        CAPO on the 3rd

e-------------------0---------------------------------------------------
B-------------3-----------3---------1---------1-----0---------0---------
G---------0-------------------0-----------0---------------0-------------
D-------4-------4-------4-------4-------0-------0-------0-------0-------
A-----------------------------------------------------------------------
E---0-------0-------0-------0-------2-------2-------3-------3-----------


e-----------------------------------------------------------------------
B---1---------1-----0---------0-----0---------0-------------------------
G---------0---------------0---------------0-----------------------------
D-------2-------2-------0-------0-------0-------0-----------------------
A-----------------------------------------------------------------------
E---3-------3-------3-------3-------3-------3---------------------------


e-----------------------------------------------------------------------
B---3---------3-----1---------1-----0---------0-----0---------0---------
G---------0---------------0---------------0---------------0-------------
D-------4-------4-------0-------0-------0-------0-------0-------2/9-----
A-----------------------------------------------------------------------
E---0-------0-------2-------2-------3-------3-------3-------3-----------


20161017

RUCY THE BRIDE AND GROOM TAB (MAIN RIFF)


Rucy plays his original song 'The Bride And Groom' Brilliant lead guitar song.
See the TAB under the video.



RUCY THE BRIDE AND GROOM TAB

GP5 + GP6 + PDF >>

Part 1

e------11---10----------------------15----13-11\-----11----h13.---------
B-------------11\-/8h11~---/13\------------------/13--------------------
G---/8----8---------------------/12----12-------------------------------
D-----------------------------------------------------------------------
A-----------------------------------------------------------------------
E-----------------------------------------------------------------------


e-----------------------------------------------------------------------
B---11(13)---(11)~----------11(13)(11)-9-8------------------------------
G---x-----------------------x--------------11\10p8----------------------
D-----------------------------------------------------------------------
A-----------------------------------------------------------------------
E-----------------------------------------------------------------------


e--------10-------10-10h12~----------\----------------------------------
B-----------------------------------------------------------------------
G---9h10----10/12-------------------------------------------------------
D-----------------------------------------------------------------------
A-----------------------------------------------------------------------
E-----------------------------------------------------------------------