Showing posts with label tenor guitar. Show all posts
Showing posts with label tenor guitar. Show all posts

20161117

SAILOR'S HORNPIPE TAB (TENOR GUITAR COVER BY DAVID HANSEN)

David Hansen plays Sailor's Hornpipe on his tenor guitar.
The tuning is GDAE (from the lower to the higher string)
See the TAB below.




SAILOR'S HORNPIPE TAB

GP5 + GP6 + PDF >>

E---3--2-3.--------------------3.--3---2--3-----------------------------
A--------------------5--3-2--5------------------------------------------
D------------5.--5.-----------------------------------------------------
G-----------------------------------------------------------------------


E---5.----------5--3-2.----------0--2-----------------------------------
A-------0---0------------5.--5------------------------------------------
D-----------------------------------------------------------------------
G-----------------------------------------------------------------------


E---3--2-0----0---------------------------------------------------------
A-----------5----5-3--2-3--2-0----0-------------------------------------
D-------------------------------5----5-4--2-----------------------------
G-----------------------------------------------------------------------


E-----------------------------------3--2--------------------------------
A-----------0----2-0--3-2-----------------------------------------------
D---0--5-4----5-------------5.--5.--------------------------------------
G-----------------------------------------------------------------------


20161114

THE ROCKY ROAD TO DUBLIN TAB (INSTRUMENTAL TENOR GUITAR COVER BY DAVID HANSEN)

David Hansen plays The Rocky Road To Dublin on his tenor guitar.
The tuning is GDAE (from the lower to the higher string)
See the TAB below.



THE ROCKY ROAD TO DUBLIN TAB

GP5 + GP6 + PDF >>

E---0-1-0--------------------------0-1-0--------------------------------
A---------5-3-2-0------0-0--2-3--5-------5--3-0--3-2-------0-2-3-5------
D-------------------2---------------------------------5-5---------------
G-----------------------------------------------------------------------


E---0-1-0--------------------------0-1-0--------------------------------
A---------5-3-2-0------0-0--2-3--5-------5--3-0--3-2-------0-2-3-5------
D-------------------2---------------------------------5-5---------------
G-----------------------------------------------------------------------


E---0--5-5--2-3---0--5-5----------0--5-5--2-3.-0------------------------
A-------------------------0-2-3-5----------------5--2----0-2-3-5--------
D-----------------------------------------------------5-----------------
G-----------------------------------------------------------------------


E---0--5-5--2-3---0--5-5----------0--5-5--2-3.-0------------------------
A-------------------------0-2-3-5----------------5--2----0-2-3-5--------
D-----------------------------------------------------5-----------------
G-----------------------------------------------------------------------