Showing posts with label the beatles. Show all posts
Showing posts with label the beatles. Show all posts

20170727

THE BEATLES IN MY LIFE TAB (INSTRUMENTAL GUITAR COVER BY ROBERTO BARALLOBRE)


Roberto Barallobre plays a great instrumental guitar cover of In My Life by The Beatles.
Download the TAB below.



THE BEATLES IN MY LIFE INSTRUMENTAL TAB

GP5 + GP6 + PDF >>

Part 1

e-----------------------------------------------------------------------
B-----------------------------------------------------------------------
G---0-------0-2-5-4~------------------0-------0-2-5-4~------------------
D-----------------------------------------------------------------------
A-----------------------------------------------------------------------
E-----------------------------------------------------------------------


e-----------------------------------------------------------------------
B---------------------------8-------------------------------------------
G---------5---5---7---7/9-----9~----------------------------------------
D---5-5h7---------------------------------------------------------------
A-----------------------------------------------------------------------
E-----------------------------------------------------------------------


e-----------------------------------------------------------------------
B-------------------------------4/5-5~----------------------------------
G---7h9-7~---\-5-5~-----------------------------------------------------
D-----------------------6/7-5-------------------------------------------
A-----------------------------------------------------------------------
E-----------------------------------------------------------------------

20121212

WHILE MY GUITAR GENTLY WEEPS SOLO TAB

There is a guitar solo played by Goerge Harrison in While My Guitar Gently Weeps.
Fortunately our friend, jun626 shows us clearly how to play it.
Clear video, correct playing and an excellent sound with the Gibson Les Paul.
If the video is too fast for learning just use the TAB below.



WHILE MY GUITAR GENTLY WEEPS SOLO TAB


e-----------------------------------------------------------------------
B----------------------13'--15(17)-13'----------------------------------
G-(17)(14)---12-14(17)------------------14~~~---12h14(17)--(17)~~~~-----
D-----------------------------------------------------------------------
A-----------------------------------------------------------------------
E-----------------------------------------------------------------------


e-----------------------------------------------------------------------
B-------------------------------------15(17)---15p13-15(17)~------------
G-12h14(17)--(17)~~~~-------12h14(17)-----------------------------------
D-----------------------------------------------------------------------
A-----------------------------------------------------------------------
E-----------------------------------------------------------------------


e-15--------------------15(17)-15(17)-15(17)-15(17)~~~~~~---------------
B------(17)(15)-15~~-13-------------------------------------------------
G-----------------------------------------------------------------------
D-----------------------------------------------------------------------
A-----------------------------------------------------------------------
E-----------------------------------------------------------------------


20121015

THE BEATLES LET IT BE SOLO TAB


Short lesson how to play the guitar solo of The Beatles - Let It Be.
The solo starts about 2:02 in the original version.
TAB helps below.



THE BEATLES LET IT BE SOLO TAB

GP5 + GP6 + PDF >>

e-----------------------------------------------------------------------
B-----------------------------------------------------------------------
G---5-----5------------------------------5-7(9)---(9)(7)p5~-------------
D---5h7---5--------------5-5---5~----5h7--------------------------------
A-----------7\5-3~---5/7-----7------------------------------------------
E-----------------------------------------------------------------------


e-------8--------------5------------------------------------------------
B-----------------------------------------------------------------------
G---7/9---9\7-5h7-7(9)---(9)(7)-5---------------------------------------
D-----------------------------------7p5-7p5-----------------------------
A-------------------------------------------7\5-3h5-3-------------------
E-----------------------------------------------------------------------


e-----------------------------------------------------------------------
B---------------------8------8------8---10~-----------------------------
G-------5-5-----5-7/9-----7h9----7h9------------------------------------
D---5/7-------7---------------------------------------------------------
A-----------------------------------------------------------------------
E-----------------------------------------------------------------------