Showing posts with label the final tour. Show all posts
Showing posts with label the final tour. Show all posts

20161121

THE SHADOWS SLEEPWALK TAB (LIVE FROM THE FINAL TOUR 2004)

The Shadows - Sleepwalk - live version from The Final Tour (2004)
Probably sounds better than the original record.
Lead guitar line + chords below.



THE SHADOWS SLEEPWALK TAB (LIVE)

GP5 + GP6 + PDF >>

Part 1
                            tremolo
e------------15~---15~--------------------------------------------------
B---------13------------------------------------------------------------
G---12/14----------------12-(11)-(12)~----------------------------------
D-----------------------------------------------------------------------
A-----------------------------------------------------------------------
E-----------------------------------------------------------------------

       tremolo
e-----------------------------------------------------------------------
B---13-(12)-(13)~------8---8~-------------------------------------------
G-----------------------------------------------------------------------
D-----------------------------------------------------------------------
A-----------------------------------------------------------------------
E-----------------------------------------------------------------------

                                   tremolo
e------------------------8~---------------------------------------------
B---6-8-8(9)---(8)---6\5---------8-(7)-(8)~-----------------------------
G-----------------------------------------------------------------------
D-----------------------------------------------------------------------
A-----------------------------------------------------------------------
E-----------------------------------------------------------------------