Showing posts with label the long road. Show all posts
Showing posts with label the long road. Show all posts

20170430

MARK KNOPFLER THE LONG ROAD TAB (BURNS ERNST INSTRUMENTAL GUITAR COVER)

The Long Road (Mark Knopfler cover) played by Burns Ernst.
Easy instrumental guitar cover.
Download the Guitar Pro 6, GP5 and PDF files below.



MARK KNOPFLER THE LONG ROAD TAB

GP5 + GP6 + PDF >>

Part 1

e-----------------------------------------------------------------------
B---------------3---------------3---------------------------------------
G---4~------2-----4~--------2-----4~------------------------------------
D-----------------------------------------------------------------------
A-----------------------------------------------------------------------
E-----------------------------------------------------------------------


e-----------------------------------------------------------------------
B---------------3---------------3---------------------------------------
G---4~------2-----4~--------2-----4~------------------------------------
D-----------------------------------------------------------------------
A-----------------------------------------------------------------------
E-----------------------------------------------------------------------


e-----------------------------------------------------------------------
B-----0-1-------------------------------0-------------------------------
G-------------------------------------2---------------------------------
D---0-------2~----------------------2-------0---------------------------
A-----------------------------------------------------------------------
E-----------------------------------------------------------------------