Showing posts with label the ventures. Show all posts
Showing posts with label the ventures. Show all posts

20160525

THE VENTURES THE HOUSE OF THE RISING SUN TAB (BASED ON THE GUITAR COVER BY AGENTMAN1991)

Nice guitar cover of The House of the Rising Sun based on how The Ventures play it.
The intro/main riff is played better on a live Ventures record - so the tab follows that version. The rest of the tab is based on this cover. All these great solos are included. Good luck :D



THE VENTURES THE HOUSE OF THE RISING SUN TAB

GP6 + GP5 + PDF >>

Part 1

e----------0----------------0----------------2----------------1---------
B-------1-----1----------1-----1----------3-----3----------1-----1------
G------2---------2------0---------0------2---------2------2---------2---
D-----2----------------2-------------0--0-------------3--3--------------
A--0----------------3---------------------------------------------------
E-----------------------------------------------------------------------


e----------0------------------------------------------------------------
B-------1-----1-------------3--1--0-------1--1-p0-----------------------
G------2---------2-------1---------------2---------2--1-----------------
D-----2-----------------0---------------2-------------0-----------------
A--0-------------------2-------------0----------------2-----------------
E-------------------0---------------------------------------------------


Part 2

e-----------------------------------------------------------------------
B-----------------------------------------------------------------------
G-----------------------------------------------------------------------
D----------------------------0h2-0--------------------------------------
A--0--0---------2--2h3~------------0-0----------------------------------
E-----------------------------------------------------------------------