Showing posts with label u2. Show all posts
Showing posts with label u2. Show all posts

20170425

CHRIS CORNELL ONE TAB (U2 MUSIC WITH METALLICA LYRICS)

Chris Cornell sings "One" with a single acoustic guitar.
U2 music with Metallica lyrics.
See the TAB below.



CHRIS CORNELL ONE TAB

GP5 + GP6 + PDF >>

Intro

e---0-------0-----0-0-0-0---0-0-0-0-2-------2-----2-2-2-2---2-2-2-2-----
B---1-------1-----1-1-1-0h1-1-1-1-1-1-------1-----1-1-1-0h1-1-1-1-1-----
G---2-------2-----2-2-2-2---2-2-2-2-2-------2-----2-2-2-2---2-2-2-2-----
D---2-------2-----2-2-2-2---2-2-2-2-0-------0-----0-0-0-0---0-0-0-0-----
A---0-------0-----0-0-0-0---0-0-0-0-------------------------------------
E-----------------------------------------------------------------------


e---0-----0-0-----0-0-0-0---0-0-0---3---3-3-3---3-3-3-3-3---3-3---------
B---1-----1-1-----1-1-1-0h1-1-1-1-0-0---0-0-1---1-1-1-0-0h1-1-1-1-------
G---2-----2-2-----2-2-2-2---2-2-2-0-0---0-0-0---0-0-0-0-0---0-0-0h2-----
D---3-----3-3-----3-3-3-3---3-3-3-0-0---0-0-0---0-0-0-0-0---0-0-0h2-----
A-----------------------------------2---2-2-2---2-2-2-2-2---2-2---------
E-----------------------------------3---3-3-3---3-3-3-3-3---3-3---------


e---0-----0-0---0-0-----0-----0-0-0-2-------2-----2-----2-----2-2-2-----
B---1-----1-1---1-0h1p0-1-----1-1-1-1-------1-----0h1p0-1-----1-1-1-----
G---2-----2-2---2-------2-----2-2-2-2-------2-----------2-----2-2-2-----
D---2-----2-2---2-------2-----2-2-2-0-------0-----------0-----0-0-0-----
A---0-----0-0---0-------0-----0-0-0-------------------------------------
E-----------------------------------------------------------------------


20130403

U2 HOLD ME THRILL ME KISS ME KILL ME TAB AND COVER


There is a cool cover of U2 - Hold Me Thrill Me Kiss Me Kill Me played by Norkettube.
He uses half step down tuning.
See the TAB under the video.


U2 HOLD ME THRILL ME KISS ME KILL ME TAB                     

PDF >>

Riff 1

eb----------------------------------------------------------------------
Bb----------------------------------------------------------------x-----
Gb----------------------------------------------------------------x-----
Db----------------------------------------------------------------x-----
Ab----------------------------------------------------------------------
Eb-12p0---12p0---12p0---12p0---12p0---12p0---12p0---12p0---12p0---------


Riff 2

eb----------------------------------------------------------------------
Bb----------------------------------------------------------------------
Gb-x-x-9---x-7---x-4---------------x-x-9---x-7---x-4--------------------
Db-x-x-9---x-7---x-4---x-5-5---5---x-x-9---x-7---x-4---x-5-5---5--------
Ab-x-x-7---x-5---x-2---x-5-5---5---x-x-7---x-5---x-2---x-5-5---5--------
Eb---------------------x-3-3---3-----------------------x-3-3---3--------


eb----------------------------------------------------------------------
Bb----------------------------------------------------------------------
Gb-x-x-9---x-7---x-4---------------x-x-9---x-7---x-4--------------------
Db-x-x-9---x-7---x-4---x-5-5---5---x-x-9---x-7---x-4---x-3-3---3---3----
Ab-x-x-7---x-5---x-2---x-5-5---5---x-x-7---x-5---x-2---x-3-3---3---3----
Eb---------------------x-3-3---3-----------------------x-1-1---1---1----