Showing posts with label ukulele. Show all posts
Showing posts with label ukulele. Show all posts

20170721

KALEI GAMIAO SILENT NIGHT TAB (UKULELE COVER)


Kalei Gamiao plays a fantastic instrumental ukulele cover of Silent Night.
Download the Guitar Pro 6 + GP5 and PDF files below.
Part 2 starts about 1:07 in the video.



KALEI GAMIAO SILENT NIGHT UKULELE TAB

GP5 + GP6 + PDF >>

Part 2

A-------------------<12>------------------------------------------------
E---3<15>------------------3<15>-------<12>-----------0-----------------
C---------------0---------------------------------0---------------------
G-----------0----------------------0----------0-----------0---0---------


A-------------------<12>--------------------------------------5---------
E---3<15>------------------3<15>-------<12>-----------0-----------------
C---------------0---------------------------------0---------------------
G-----------0----------------------0----------0-----------0-------------


A---5---------------5-------2---------------0---2/3---------------------
E---------------3-----------1-----------1-------------------------------
C-----------5---------------2-------2-----------------------------------
G-------0---------------0---0---0---------------------------------------


A---3---------------3---------------------------------------------------
E-----------0---------------3-----------3-------------------------------
C-----------------------------------0-----------------------------------
G-------0-------0-------0-------0-----------0---0-----------------------


20151205

JASON MRAZ FLY ME TO THE MOON TAB (ACOUSTIC VERSION)

Jason Mraz plays Fly Me To The Moon with a Venezuelan cuatro.
The tuning is the same as the 4 higher strings on a normal guitar - so DGBE.
See the TAB under the video.


JASON MRAZ FLY ME TO THE MOON TAB (ACOUSTIC VERSION)

PDF >>

Chords


    Am        Dm        G       C maj7       F          F6

e---5---------5---------3---------3----------1----------1---------------
B---5---------6---------3---------5----------1----------3---------------
G---5---------7---------4---------4----------2----------2---------------
D---7---------7---------5---------5----------3----------3---------------

   
    E7        A7        E

e---7---------5---------12----------------------------------------------
B---5---------5---------9-----------------------------------------------
G---7---------6---------9-----------------------------------------------
D---6---------5---------9-----------------------------------------------



Am            Dm
Fly me to the moon

           G              C maj7
And let me play among the stars

     F                 F6
And let me know what spring is like

 E7              Am
On Jupiter and Mars


20141019

BRITTNI PAIVA LIGHTS UKULELE TAB


Brittni Paiva plays Lights with a nice Ukulele and a Boss ME-70 pedal.
She uses "low G standard" tuning.
TAB under the video.



BRITTNI PAIVA LIGHTS UKULELE TAB

PDF >>

Loop 1

A-3---x-3---x-3---x-3---x-3-3-3-3-2---x-2---x-2---x-2---x-2-2-2-2-------
E-----------------------------------------------------------------------
C-----------------------------------------------------------------------
G-----------------------------------------------------------------------


A-3---x-3---x-3---x-3---x-3-3-3-3-3---x-3---x-3---x-3---x-3-3-3-3-------
E-----------------------------------------------------------------------
C-----------------------------------------------------------------------
G-----------------------------------------------------------------------


Loop 2

A-----------------------------------------------------------------------
E-------5-----------------5-------------3-----------------3-------------
C-------------4---------------4---------------2---------------0---------
G-2-------------------2-----------0-------------------0-----------------


A-----------------------------------------------------------------------
E-------5-----------------5-------------5-----------------5-------------
C-------------5---------------5---------------5---------------5---------
G-5-------------------5-----------7-------------------7-----------------


20141002

SOMEWHERE OVER THE RAINBOW UKULELE TAB (FINGERSTYLE COVER BY GORAN PAUK)

Goran Pauk plays a nice fingerstyle ukulele cover of Somewhere Over The Rainbow.
He is using 2 step-down tuning from the low G standard. (That is D#G# C F)
See the TAB under the video.



SOMEWHERE OVER THE RAINBOW UKULELE TAB

GP5 + GP6 + PDF >>

Main Part

F---0---------------8---------------7-----3--5------7-----8-------
C------1-----1---------5-----5---------0--5--5---------0-----5----
G#--------0---------------5---------0-----5--5------0-------------
D#--2---------------5-------------------------------------5-------


F---1---------------5---------------3---------------3-------------
C------1-----1---------6-----6---------5-----5---------5-----5----
G#--------2---------------5---------5-----5---------5-----5-------
D#--3---------------7---------------------------------------------


F---1---------------1---------------0---------------0-----1-------
C------3-----3---------3-----3------------1--3--------------------
G#--------2---------------2------------0---------------0-----0----
D#--0---------------0---------------2---------------2-------------


20130318

IZ SOMEWHERE OVER THE RAINBOW TAB AND LESSON


Somewhere Over The Rainbow by IZ played on guitar - so that it sounds like you were playing it with a ukulele. Use the three higher strings (G B E ) on your guitar.
TAB helps below.



ISRAEL "IZ" KAMAKAWIWO'OLE SOMEWHERE OVER THE RAINBOW TAB

PDF >> 

Intro

      C               Em              Am              F

e-x-x-8-8-x-x-8-8-x-x-7-7-x-x-7-7-x-x-5-5-x-x-5-5-x-x-5-5-x-x-5-5-------
B-x-x-8-8-x-x-8-8-x-x-8-8-x-x-8-8-x-x-5-5-x-x-5-5-x-x-6-6-x-x-6-6-------
G-x-x-9-9-x-x-9-9-x-x-9-9-x-x-9-9-x-x-5-5-x-x-5-5-x-x-5-5-x-x-5-5-------
D-----------------------------------------------------------------------
A-----------------------------------------------------------------------
E-----------------------------------------------------------------------

      C               Em              Am              F add9

e-x-x-8-8-x-x-8-8-x-x-7-7-x-x-7-7-x-x-5-5-x-x-5-5-x-x-5-5-x-x-5-5-------
B-x-x-8-8-x-x-8-8-x-x-8-8-x-x-8-8-x-x-5-5-x-x-5-5-x-x-8-8-x-x-8-8-------
G-x-x-9-9-x-x-9-9-x-x-9-9-x-x-9-9-x-x-5-5-x-x-5-5-x-x-5-5-x-x-5-5-------
D-----------------------------------------------------------------------
A-----------------------------------------------------------------------
E-----------------------------------------------------------------------