Showing posts with label wagon wheel. Show all posts
Showing posts with label wagon wheel. Show all posts

20151017

DARIUS RUCKER WAGON WHEEL TAB (COUNTRY SOLO)


Darius Rucker sings Wagon Wheel.
There is a great country guitar solo about 2:45.
See the TAB of this solo under the video.



DARIUS RUCKER WAGON WHEEL SOLO TAB

GP5 + GP6 + PDF >>

e-----------------------------------------------------------------------
B-----------------------------------------------------------------------
G-----------------------------------------------------------------------
D------------------------------4(6)-----(4)-2.--------------------------
A---------0-2(4)-----(2)-0.---------------------------------------------
E---0h2-----------------------------------------------------------------


e-----------------------------------------------------------------------
B--------------------------5---5----------------------------------------
G---------2-4---2-4(6)-----------(6)-----(4)-----2.---------------------
D---2/4-----------------------------------------------------------------
A-----------------------------------------------------------------------
E-----------------------------------------------------------------------


e---5-----5-------------------------------------------------------------
B---5h7---5-------------------------------------------------------------
G-------------6\4-----2---------4-4---4---------------------------------
D-------------------------4/6-----------6\4---2-------------------------
A-----------------------------------------------------------------------
E-----------------------------------------------------------------------