Showing posts with label willie nelson. Show all posts
Showing posts with label willie nelson. Show all posts

20170320

WILLIE NELSON O'ER THE WAVES TAB (RED HEADED STRANGER 1975)


Willie Nelson - O'er The Waves from the album Red Headed Stranger (1975)
Download the Guitar Pro 6, GP5 and PDF files below.



WILLIE NELSON O'ER THE WAVES TAB

GP5 + GP6 + PDF >>

e-------------------------------3---------------------------------------
B---3-----------------------3---0---------------------------------------
G-----5-4-----------3---4---0---0---------------------------------------
D---------------------------0-------------------------------------------
A-----------------------------------------------------------------------
E-----------------------------------------------------------------------


e---2----3-5---3.----2-3------------------------------------------------
B------------------------------3/--7------------------------------------
G--------------------------4--------------------------------------------
D-----------------------------------------------------------------------
A-----------------------------------------------------------------------
E-----------------------------------------------------------------------


e-----------------------------------------------------------------------
B-----------------------3/--7-------------------------------------------
G---5-----------4---5---------------------------------------------------
D-----------------------------------------------------------------------
A-----------------------------------------------------------------------
E-----------------------------------------------------------------------


20151002

WILLIE NELSON HE WAS A FRIEND OF MINE TAB (INTRO COVER BY MIKI ASHKENAZI)

Perfect guitar cover of the intro part of Willie Nelson's He Was A Friend Of Mine.
Great playing by Miki Ashkenazi. Use Dropped D tuning with CAPO on the 2nd.
Leave the low D and the A strings open. See the TAB under the video.



WILLIE NELSON HE WAS A FRIEND OF MINE TAB

PDF >>

Part 1

e-----------------------------------------------------------------------
B-----8-------8-----------------------2---5-----3-----------------------
G-7/9-------9-----9-----2-----------2-----------------------------------
D-------2-----------2-----------2-----------2---------------------------
A-0-----------0-----------0-----------0---------------------------------
D-----------------------------------------------------------------------


e-----------------------------------------------------------------------
B-------------------------3---------------3-----------------------------
G-----------------2-----------------------------2-----------------------
D-------4-----------5---4-------4-----------4---------------------------
A-------------0-----------------------0---------------------------------
D-0-----------------------0---------------------------------------------


e-----------------------------------------------------------------------
B-----8-------8---------------------7-------2---3-----------------------
G-7/9-------9-----9-----2-----------------2-----------------------------
D-------2-----------2-----------5/7---------5---4-----------------------
A-0-----------0-----------0-----------0---------------------------------
D-----------------------------------------------------------------------