Showing posts with label wish you were here. Show all posts
Showing posts with label wish you were here. Show all posts

20170917

VELVET REVOLVER WISH YOU WERE HERE TAB (LIVE INTRO SOLO BY SLASH)

Velvet Revolver - Wish You Were Here live version with a great Slash intro.
The intro solo is about 0:23 - 1:39 played on a double guitar.
Half step-down tuning.



VELVET REVOLVER WISH YOU WERE HERE TAB (INTRO SOLO)

PDF >>

 0:23 - 1:39

eb---10------10------10------10--------------10------10-----------------
Bb---10h12---10h12---10h12---10h12-----------10h12---10h12---10---------
Gb----------------------------------------------------------------------
Db----------------------------------------------------------------------
Ab----------------------------------------------------------------------
Eb----------------------------------------------------------------------


eb----------------------------------------------------------------------
Bb---10.--10--------10--------------------------------------------------
Gb---9.---9h11---11-----------------------------------------------------
Db-------------0--------------------------------------------------------
Ab----------------------------------------------------------------------
Eb----------------------------------------------------------------------


eb-------10------10-----------------------------------------------------
Bb-------10h12---10h12---10---10-------10---10---\----------------------
Gb-----------------------9----9h11-----9h11-9----\----------------------
Db---0------------------------------------------------------------------
Ab----------------------------------------------------------------------
Eb----------------------------------------------------------------------


20130223

DAVID GILMOUR WISH YOU WERE HERE TAB (LIVE UNPLUGGED)


David Gilmour playing Wish You Were Here live unplugged. It's just brilliant.
Download the TAB of the intro riff and the intro solo below.



PINK FLOYD WISH YOU WERE HERE TAB

GP5 + GP6 + PDF >>

Intro

e-----------------------3-----3---3-3-3-----------------3---3-3-3-3-----
B-----------------------3-----3---3-3-3-----------------3---3-3-3-3-----
G-----------------------0-----0---0-0-0-0---------------0---0-0-0-0-----
D-----------0---2-------2-----2---2-2-2-----2.--0-------0---0-0-0-0-----
A-------0h2---------------------------------------------2---2-2-2-2-----
E---3---------------------------------------------------3---3-3-3-3-----


e-----------------------3-----3-3-3-3-3-----------------3-----3-3-3-----
B-----------------------3-----3-3-3-3-3-----------------3-----3-3-3-----
G-----------------------0-----0-0-0-0-0-0---------------0-----0-0-0-----
D-----------0---2-------2-----2-2-2-2-2-----2.--0-------0-----0-0-0-----
A-------0h2---------------------------------------------2-----2-2-2-----
E---3---------------------------------------------------3-----3-3-3-----


e-------------------3-3-3---3-3-3-3-----------------3-3-3---3-3-3-3-3-3-
B-------------------3-3-3---3-3-3-3-----------------3-3-3---3-3-3-3-3-3-
G-------------------0-0-0---0-0-0-0-----------------0-0-0---0-0-0-0-0-0-
D-----------0---2---2-2-2---2-2-2-2-2---0-----------2-2-2---2-2-2-2-2-2-
A-------0h2---------------------------------2.--0---0-0-0---0-0-0-0-0-0-
E---3-------------------------------------------------------------------


e----------------3---3-3-3-3-----------------3-3-3---3-3-3-3-3-3-3-3-3-3
B----------------3---3-3-3-3-----------------3-3-3---3-3-3-3-3-3-3-3-3-3
G----------------0---0-0-0-0-----------------0-0-0---0-0-0-0-0-0-0-0-0-0
D-----0---2------2---2-2-2-2-0h2-0-----------2-2-2---2-2-2-2-2-2-2-2-2-2
A-0h2--------------------------------2.--0---0-0-0---0-0-0-0-0-0-0-0-0-0
E-----------------------------------------------------------------------


e---3---3-3-3-----3-3-3-3-3-3-3-3-3-3---3-3-3---3-3-3-3-----------------
B---3---3-3-3-----3-3-3-3-3-3-3-3-3-3---3-3-3---3-3-3-3-----------------
G---0---0-0-0-----0-0-0-0-0-0-0-0-0-0---0-0-0---0-0-0-0-----------------
D---0---0-0-0-----0-0-0-0-0-0-0-0-0-0---0-0-0---0-0-0-0---------0-------
A---2---2-2-2-----2-2-2-2-2-2-2-2-2-2---2-2-2---2-2-2-2-----0h2---------
E---3---3-3-3-----3-3-3-3-3-3-3-3-3-3---3-3-3---3-3-3-3-3---------------


Intro solo

e-----------------------------------------------------------------------
B-------3~-----5---3~---------------------------------------------------
G---2/4----------4--------4p2p0-----------------------------------------
D-------------------------------0-------------0-0-----------------------
A-----------------------------------------0h2---------------------------
E-----------------------------------------------------------------------


e---3/5---\3.-----------------------------------------------------------
B---3/5---\3.---3/5.---3--------3/5.---3--------------------------------
G---------------2/4.---2---p0---2/4.---2-0-2/4--------------------------
D------------------------------------------3/5--------------------------
A-----------------------------------------------------------------------
E-----------------------------------------------------------------------


e-----------------------------------------------------------------------
B-------3---5~-----(7)(5)p3---3.----------------3-5---------------------
G---2/4---4-----------------4-----2~-----4(6)-------4(6).---2~----------
D-----------------------------------------------------------------------
A-----------------------------------------------------------------------
E-----------------------------------------------------------------------


e-----------------------------------------------------------------------
B-------3---5~-----5(7).---5p3-5.---------------------------------------
G---2/4---4-------------------------2~-----4/6\4-2~---------------------
D-----------------------------------------------------------------------
A-----------------------------------------------------------------------
E-----------------------------------------------------------------------


Verse chords

e---0-------2-------0-------3-------2-------0-------0-------3-----------
B---1-------3-------1-------3-------3-------1-------1-------3-----------
G---0-------2-------2-------0-------2-------0-------2-------0-----------
D---2-------0-------2-------0-------0-------2-------2-------0-----------
A---3---------------0-------2---------------3-------0-------2-----------
E---------------------------3-------------------------------3-----------




DOWNLOAD THIS TAB IN GUITAR PRO



  • click 'Free Download'
  • add your e-mail address
  • you will get an e-mail with your download links (in a few seconds)
  • download the Guitar Pro 6 tab + GP5 + PDF for free
  • and that's all ...


Guitar Pro: a complete workshop for guitarists at an affordable price