Showing posts with label you'll never walk alone. Show all posts
Showing posts with label you'll never walk alone. Show all posts

20170105

YOU'LL NEVER WALK ALONE TAB (INSTRUMENTAL GUITAR COVER BY NEVILLE WORTHINGTON)

Neville Worthington plays an instrumental guitar cover of You'll Never Walk Alone.
The original song was written by Rogers and Hammerstein.
Download the Guitar Pro 6, GP5 and PDF files below.



YOU'LL NEVER WALK ALONE INSTRUMENTAL TAB

PDF >>

e-----------------------------------------------------------------------
B-----------------------------------------------------------------------
G-----------------------------------------------------------------------
D---2---0--------------------2---0--------------------------------------
A---------3------------------------3------------------------------------
E-----------------------------------------------------------------------


e-----------------------------------------------------------------------
B-----------------------------------------------------------------------
G-----------------------------------------------------------------------
D---2---3-5-----------------2-----0-------------------------------------
A-----------------------------------------------------------------------
E-----------------------------------------------------------------------


e-----------------------------------------------------------------------
B-----------------------------------------------------------------------
G-----------------------------------------------------------------------
D---2-3-----------------5---3-2-----------------5---2-0-----------------
A-----------------------------------------------------------------------
E-----------------------------------------------------------------------