Showing posts with label zakk wylde. Show all posts
Showing posts with label zakk wylde. Show all posts

20170214

ZAKK WYLDE DARKEST HOUR TAB (GUITAR SOLO COVER BY GAKU)


Zakk Wylde - Darkest Hour guitar solo cover played by Gaku.
Download the GP6, GP5 and PDF files below.



ZAKK WYLDE DARKEST HOUR SOLO TAB

GP5 + GP6 + PDF >>

e--10-------9-------7---------------------------------------------------
B--------------------10-8-7-10-8-7--------------------------------------
G---------------------------------9-7-6-9-7-6---------------------------
D--------------------------------------------9-7-5-9-7-5------x-x-x-----
A-------------------------------------------------------9-7-5-x-x-x-----
E-----------------------------------------------------------------------
                    x x x x x  x xx x x x x xx x x x x xx x x 


e-----------------------------------------------------------------------
B--7----------------7---------------7--8--7--7--------------------------
G--9(11)(11)--------9(11)~~~-----------------9(11)------(11)(9)p7-9~~~\-
D-----------------------------------------------------------------------
A-----------------------------------------------------------------------
E-----------------------------------------------------------------------


e-----------------------------------------------------------------------
B--x-x-10(12)(10)(12)(10)(12)--(10)--12(14)(12)(14)(12)(14)--(12)-------
G--x-x------------------------------------------------------------------
D-----------------------------------------------------------------------
A-----------------------------------------------------------------------
E-----------------------------------------------------------------------

20140618

BLACK LABEL SOCIETY QUEEN OF SORROW TAB (LIVE ACOUSTIC VERSION AT GUITAR CENTER)

Black Label Society - Queen of Sorrow played live at Guitar Center.
Both - Zakk's and Nick's guitar in the background - are tuned one step down.
See the TAB of Zakk Wylde's awesome playing under the video.



BLACK LABEL SOCIETY QUEEN OF SORROW TAB

PDF >>

Chords

  Fm     G#     Eb     C#
d-3------x------1------3------------------------------------------------
A-3------3------1------4------------------------------------------------
F-3------3------2------3------------------------------------------------
C-5------3------3------5------------------------------------------------
G-5------5------3------6------------------------------------------------
D-3------6------1------x------------------------------------------------


Nick plays some chords a little different

  G#     C#         C#
d-x------x----------x---------------------------------------------------
A-3------4----------8---------------------------------------------------
F-3------3--- or ---8---------------------------------------------------
C-3------1----------8---------------------------------------------------
G-1------1----------6---------------------------------------------------
D-x------x----------x---------------------------------------------------


Solo

d-----------------------------------------------------------------------
A-------------------------------------------6---6h8-6~------------------
F--------------3---5/7.--5~-------5-3-5/7-----7-------------------------
C-3h5~---5-3-5---5------------------------------------------------------
G-----------------------------------------------------------------------
D-----------------------------------------------------------------------