Showing posts with label zorba. Show all posts
Showing posts with label zorba. Show all posts

20161105

ZORBA THE GREEK TAB (FINGERSTYLE COVER BY CACHO TIRAO)

Zorba the Greek (Zorba el Griego) played by the great Cacho Tirao.
Awesome fingerstyle version from a live TV show.
See the TAB under the video.



CACHO TIRAO ZORBA THE GREEK TAB

GP5 + GP6 + PDF >>

Part 1

e---------5.--------------5.--------------5.--------------5.------------
B---------5.--------------5.--------------5.--------------5.------------
G---------6.--------------6.--------------6.--------------6.------------
D-----------------------------------------------------------------------
A-0.------------------------------0.------------------------------------
E-----------------0.------------------------------0.--------------------


e-----------------------------------------------------------------------
B-4/5~------5.--------------5-----4/5~------5.--------------5-----------
G-----------6.--------------6---------------6.--------------6-----------
D-----------7.--------------7---------------7.--------------7-----------
A-0.------------------------------0.------------------------------------
E-------------------0.------------------------------0.------------------


e-----------------------------------------------------------------------
B-7p5-4-4/5~------5.--------------5-----4/5~------5.---------------5.---
G-----------------6.--------------6---------------6.---------------6.---
D-----------------7.--------------7---------------7.---------------7.---
A-------0.------------------------------0.------------------------------
E-------------------------0.-------------------------------0.-----------


20130717

JOSÉ FELICIANO ZORBA THE GREEK TAB

José Feliciano plays Zorba the Greek with a classical guitar. There are some bass and drums too. That's called real 'guitar playing': extremely fast, nice melodies and a lot of happyness from a person who actually can't see. TAB helps to learn that song below.



JOSÉ FELICIANO ZORBA THE GREEK TAB

PDF >>

Intro

e-6-7-------0---------6---9-7-6-7-9-7-6-7-9-7-6-7-7-7----------0--------
B-8-9-------0---------8---9-9-8-9-9-9-8-9-9-9-8-9-9-9----------0--------
G-----------1--------------------------------------------------1--------
D-----------2--------------------------------------------------2--------
A-----------2--------------------------------------------------2--------
E-----------0--------------------------------------------------0--------

Part 1

e-6---7.---7---7.---7---7.---7---7.---7---7.---7---7.-------------------
B-8---9.---9---9.---9---9.---9---9.---9---9.---9---9.-------------------
G-----------------------------------------------------------------------
D-----------------------------------------------------------------------
A-----------------------------------------------------------------------
E-----------------------------------------------------------------------