20170119

BURNS ERNST HOUSE OF THE RISING SUN TAB (INSTRUMENTAL GUITAR COVER)

Burns Ernst plays his own instrumental guitar cover of House of the Rising Sun.
Original song by The Animals.
See the TAB under the video.



BURNS ERNST HOUSE OF THE RISING SUN TAB

PDF >>

Part 1

 Am / C / D / F /
 Am / E / Am / E /

      Am          C            D         F
e-----------------------------------------------------------------------
B-----------------------------------------------------------------------
G-----------------------------------------------------------------------
D-----------------------------------------------------------------------
A-----0---------2-3---------/7-5---0-----0------------------------------
E---0-------------------------------------------------------------------

      Am          C            E
e-----------------------------------------------------------------------
B-----------------------------------------------------------------------
G-----------------------------------------------------------------------
D---7-7~--------7-5~----------------------------------------------------
A--------------------------7-5-7~---------------------------------------
E-----------------------------------------------------------------------

         Am          C             D             F
e-----------------------------------------------------------------------
B-----------------------------------------------------------------------
G-----------------------------------------------------------------------
D---/7-7-7~--------7-5-\-2~------2-0------------------------------------
A--------------------------------------0-----0-0-3~---------------------
E-----------------------------------------------------------------------

20170115

THE SPOTNICKS KARELIA TAB (GUITAR PRO - 1966)


The Spotnicks - Karelia from 1966. Lead guitar line.
Download the Guitar Pro Tab below.



THE SPOTNICKS KARELIA TAB

GP5 + GP6 + PDF >>

e----------5----------------------3----------------------1--------------
B-------5----------5-----------3----------3-----------1----------1------
G-----5--------------5.------4--------------4.------2--------------2.---
D-----------------------------------------------------------------------
A-----------------------------------------------------------------------
E-----------------------------------------------------------------------


e---0-------0---0---0-----0---------------------------------------------
B---0---------------------------0---1-----1-0-------0-------------------
G---1-----------------------2-------------------2-----------------------
D-----------------------------------------------------------------------
A-----------------------------------------------------------------------
E-----------------------------------------------------------------------


e-----1---1---0-----0---------------------------------------------------
B---0-----------------0---1---3---3--3-1.--0.---------------------------
G----------------------------------------------2------------------------
D-----------------------------------------------------------------------
A-----------------------------------------------------------------------
E-----------------------------------------------------------------------


20170110

GEORGE HARRISON SOMETHING TAB (INSTRUMENTAL GUITAR COVER BY CAUE LOBO)

Caue Lobo plays an instrumental guitar cover of Something by George Harrison.
Sounds amazing!
Download the Guitar Pro Tab below.



GEORGE HARRISON SOMETHING TAB

GP5 + GP6 + PDF >>

Part 1

e-----------------------------------------------------------------------
B-----------------------------------------------------------------------
G------2.--(5)(4)-2.--3-------4-----------------------------------------
D-----------------------------------------------------------------------
A-----------------------------------------------------------------------
E-----------------------------------------------------------------------


e-----------------------------------------------------------------------
B-----------------------------------------------------------------------
G---4/5---5-------5~----------5---4~------------------------------------
D---------------------------5-------------------------------------------
A-----------------------------------------------------------------------
E-----------------------------------------------------------------------


e-----------------------------------------------------------------------
B-----------------------------------------------------------------------
G---5\3-3-3.--3.--5.--5/7-----5.--5-------------------------------------
D----------------------------------5h7~----------\----------------------
A-----------------------------------------------------------------------
E-----------------------------------------------------------------------


20170105

YOU'LL NEVER WALK ALONE TAB (INSTRUMENTAL GUITAR COVER BY NEVILLE WORTHINGTON)

Neville Worthington plays an instrumental guitar cover of You'll Never Walk Alone.
The original song was written by Rogers and Hammerstein.
Download the Guitar Pro 6, GP5 and PDF files below.



YOU'LL NEVER WALK ALONE INSTRUMENTAL TAB

GP5 + GP6 + PDF >>

e-----------------------------------------------------------------------
B-----------------------------------------------------------------------
G-----------------------------------------------------------------------
D---2---0--------------------2---0--------------------------------------
A---------3------------------------3------------------------------------
E-----------------------------------------------------------------------


e-----------------------------------------------------------------------
B-----------------------------------------------------------------------
G-----------------------------------------------------------------------
D---2---3-5-----------------2-----0-------------------------------------
A-----------------------------------------------------------------------
E-----------------------------------------------------------------------


e-----------------------------------------------------------------------
B-----------------------------------------------------------------------
G-----------------------------------------------------------------------
D---2-3-----------------5---3-2-----------------5---2-0-----------------
A-----------------------------------------------------------------------
E-----------------------------------------------------------------------


20161230

JOE BONAMASSA BRIDGE TO BETTER DAYS TAB (GUITAR SOLO, LIVE)

Joe Bonamassa plays a brilliant guitar solo from 2:03 to 3:44
On YouTube: 'Joe Bonamassa - Bridge To Better Days (Arhus Denmark - July 2009)'
Download the GP5, GP6 and PDF files below.



JOE BONAMASSA BRIDGE TO BETTER DAYS SOLO TAB

GP5 + GP6 + PDF >>

e-------------5-----------------5---------------------------------------
B-------------5-----------------5--------------5/7-x-5-5----------------
G--------------------------------------------------x--------------------
D----5-7~-------7~-----5-7~-------7~-----7p5---5/7-x-5-5---4---4-5-5-6-6
A--0--------0--------0--------0--------0-----7--------------------------
E--------------------------------------------------------x-2---2-3-3-4-4
   x        x        x        x        x


e-------------5-----------------5---------------------------------------
B-------------5-----------------5--------------5/7-x-5-5----------------
G--------------------------------------------------x--------------------
D----5-7~-------7~-----5-7~-------7~-----7p5---5/7-x-5-5---4---4-5-5-6-6
A--0--------0--------0--------0--------0-----7--------------------------
E--------------------------------------------------------x-2---2-3-3-4-4
   x        x        x        x        x


e-------------5-----------------5---------------------------------------
B-------------5-----------------5--------------5/7-x-5-5----------------
G--------------------------------------------------x--------------------
D----5-7~-------7~-----5-7~-------7~-----7p5---5/7-x-5-5---4---4-5-5-6-6
A--0--------0--------0--------0--------0-----7--------------------------
E--------------------------------------------------------x-2---2-3-3-4-4
   x        x        x        x        x