20170712

THE VENTURES SAN ANTONIO ROSE TAB (GP5 + GP6 + PDF)


The Ventures play San Antonio Rose.
Amazing instrumental lead guitar playing.
Download the TAB below.



THE VENTURES SAN ANTONIO ROSE TAB

GP5 + GP6 + PDF >>

Part 1

e-----0---0-1-0-----------------------------------0-------0-------------
B-------4-------3-1p0-----------------------0-------0-------0.----------
G---------------------2-1-------------------1-------2-------1.----------
D-------------------------3-2-0-------------2-------3-------2.----------
A-------------------------------3-2---------2-------3-------2.----------
E-----------------------------------0.----------------------------------


Part 2

e-------5.--7/9---------5.----------------------------------------------
B---5.----------------------5------------5---------5-7.--3p2p1p0--------
G-----------------------------------/6-------7---7----------------------
D-----------------------------------------------------------------------
A-----------------------------------------------------------------------
E-----------------------------------------------------------------------


e------------------0---------------------------5------------------------
B---9----------7---x-------7---5-----------5----------------------------
G---7----------7---7---------------6---------------6--------------------
D---9-------------------------------------------------------------------
A-----------------------------------------------------------------------
E-----------------------------------------------------------------------


20170706

ANA VIDOVICH G MINOR SONATA GUITAR TAB (J. S. BACH)


Ana Vidovich plays Sonata No. 1 in G minor by J. S. Bach
The amazing part from 3:33 - 8:06 is transcribed.
Download the Guitar Pro 6 and PDF files below.



ANA VIDOVICH G MINOR SONATA GUITAR TAB

GP6 + PDF >>

Part 1

e-----------------------------------------------------------------------
B-------------------------------------------4---------------3-----------
G-------7.--7.--7.--7~--5-3-5---2.--3-------3-------2-------------------
D---------------------------------------5.--5.--5---5---3-1-3---0-------
A-----------------------------------------------------------------------
E-----------------------------------------------------------------------


e-------3-------3---3---1---1-------------------------------------------
B---4-------1-------------4-----3---4---------------------3.--3.--3-----
G-------------------3-------2-------0---------3-2-4h5---------0---------
D---1-------1-------0-------0-------------------------4-----------------
A-------------------------------------------3---0-----3-------1---------
E---------------------------------------3-------------------------------


e---------------------------6-------6---5---5---------------------------
B---3---1-------------------6-------------8---7-8---7---------8---------
G---------3-5---2.--3-------7-------5---------------5-8-7-5-------------
D---2-------4-------5---3-------0-------------------0-------8---7-5-----
A---0-------5-------------6-8-------6-----------------------------------
E-------------------3---------------------------------------------------


20170701

ACOUSTICIAN HOTEL CALIFORNIA SOLO TAB (THE EAGLES)


The Eagles - Hotel California solo part played on acoustic guitar by Acoustician.
His name is Juha Järvinen and he adds a nice improvisation at the end (~ 2:14)
Download the Guitar Pro 6 and PDF tab below.



ACOUSTICIAN HOTEL CALIFORNIA SOLO TAB

GP5 + GP6 + PDF >>

e-----------------------------------------------------------------------
B----------10h12/15~-------10h12-------------7--------------------------
G---6/11------------------------11\9~----7h9---7------------------------
D------------------------------------------------9-8~-------------------
A-----------------------------------------------------------------------
E-----------------------------------------------------------------------


e-----------------------------------------------------------------------
B-----------------------------------------------------------------------
G-----------------------------------------------------------------------
D---9-h12p9-7--/8~------------------------------------------------------
A-----------------------------------------------------------------------
E-----------------------------------------------------------------------


e-----------------------------------------10----------------------------
B-------7---------------7-----------10/12----12\10~--7-10-9~------------
G---7h9---7---------7h9---7-------7-------------------------------------
D-----------9-8-9~----------9-8-9---------------------------------------
A-----------------------------------------------------------------------
E-----------------------------------------------------------------------

20170629

LEONARD COHEN HALLELUJAH TAB (MINI COVER BY JEN TRANI)

Jen Trani plays Leonard Cohen's Hallelujah in the style of Jeff Buckley.
She uses open E tuning with Capo on the 4th fret.
Download the TAB below.



JEN TRANI HALLELUJAH TAB

GP5 + GP6 + PDF >>

Intro

e---------------7--------------11~----------------7--------------11~----
B------5-h7-/9-----9.-------9------------5-h7-/9-----9.-------9---------
Ab-----------------------0---------------------------------0------------
E-----------------------------------------------------------------------
B-----------------------------------------------------------------------
E---0-----------------9---------------0-----------------9---------------


e-----------------------------------------------------------------------
B----------5.-4--0-----------5.-4--0------------------------------------
Ab------5-----------5-----5-----------5---------------------------------
E-----------------------------------------------------------------------
B-----------------------------------------------------------------------
E----5-----------------5------------------------------------------------


e----------------------------------0------------------------------------
B----------7--7-----------------7-----7---------------------------------
Ab------7--------7-----------7------------------------------------------
E-----------------------------------------------------------------------
B-----------------------------------------------------------------------
E----7--------------7--7------------------------------------------------


20170623

THE SQUARE TRAVELERS TAB (GUITAR SOLO PARTS)


The Square (T-Square) - Travelers guitar solo cover. Solo 1 and Solo 2.
In the original song you can find these parts at 0:19 and 2:17.
Download the Guitar Pro 6, GP5 and PDF files below.



THE SQUARE TRAVELERS SOLO TAB

GP5 + GP6 + PDF >>

Solo 1   (0:19 - 1:27)

e-----------------------------8.--8h10----------------------------------
B---/10-----------8-10.--11.-------------10~----------------------------
G-----------------------------------------------------------------------
D-----------------------------------------------------------------------
A-----------------------------------------------------------------------
E-----------------------------------------------------------------------


e-----------------------------8.--8h10----------------------------------
B---/10-----------8-10.--11.-------------10~----------------------------
G-----------------------------------------------------------------------
D-----------------------------------------------------------------------
A-----------------------------------------------------------------------
E-----------------------------------------------------------------------


e-----------------------------8.--8h10----------------------------------
B---/10-----------8-10.--11.-------------10~----------------------------
G-----------------------------------------------------------------------
D-----------------------------------------------------------------------
A-----------------------------------------------------------------------
E-----------------------------------------------------------------------