20170912

THE DAKOTAS MAGIC CARPET TAB (INSTRUMENTAL GUITAR COVER BY JOHN MASON)


The Dakotas - Magic Carpet instrumental guitar cover by John Mason.
Download the Guitar Pro 6 tab and the PDF below.



THE DAKOTAS MAGIC CARPET TAB

GP5 + GP6 + PDF >>

Part 1

e---0-------------------------------0-----------------------------------
B---0-------------------------------0---------------2-------4-----------
G---0-------------------------------0---------------2-------4-----------
D---2-------------------------------2---------------2-------4-----------
A---2-------------------------------2---------------0-------2-----------
E---0-------------------------------0-----------------------------------


e-----------------------------------------------------------------------
B-----------------------------------------------------------------------
G---------------0---4---2-----------------------------------------------
D-------2-----2-----------------4-----0-2~------------------------------
A---2-------------------------------------------------------------------
E-----------------------------------------------------------------------


e-----------------------------------------------------------------------
B-----------------------------------------------------------------------
G---------------0---4---6~------7-----6-4~------------------------------
D-------2-----2---------------------------------------------------------
A---2-------------------------------------------------------------------
E-----------------------------------------------------------------------


20170906

WILLIE NELSON BANDERA TAB (RED HEADED STRANGER 1975)

Willie Nelson - Bandera nylon guitar solo parts from the album Red Headed Stranger
There is an intro solo part then later a little solo while the beautiful harp playing and at the end there is the outro solo part that's very similar to the intro solo.
Download the Guitar Pro and PDF files below.


WILLIE NELSON BANDERA TAB

GP5 + GP6 + PDF >>

Intro solo

e---1---2---3~------3-3-3~------3-3-3~------3-3-3~---2---1--------------
B-----------------------------------------------------------------------
G---2---3---4~------4-4-4~------4-4-4~------4-4-4~---3---2--------------
D-----------------------------------------------------------------------
A-----------------------------------------------------------------------
E-----------------------------------------------------------------------


e-----0-------------0-----------0-----------3---------------------------
B-------1---------0---0-------1---1-------3---3-------------------------
G---0-----0--------1----1------2----2----3-3----------------------------
D-----------2-------------2--2--------2---------------------------------
A-------------3--2----------0-------------------------------------------
E---------------0-----------------------3-------3-2---------------------


e-----------------------------------------------------------------------
B-------1~----1.-1~--3-----5\-1~-------1-1-1---3---5\-1-----------------
G-------------------------------------------------------0---------------
D-----------------------------------------------------------------------
A-----------------------------------------------------------------------
E---1-------------------------------------------------------------------


20170901

JOHNNY RIVERS ROCKIN PNEUMONIA TAB (GUITAR SOLO)


Michael Gregory plays a great cover Rockin Pneumonia guitar solo.
Originally the solo is played by Dean Parks from Johnny Rivers' band.
Download the TAB in Guitar Pro 6 and in PDF.



JOHNNY RIVERS ROCKIN PNEUMONIA SOLO TAB

GP5 + GP6 + PDF >>

e----------8------------------------------------------------------------
B-------------11(13)~~~-------------------------------------------------
G------/9---------------------------------------------------------------
D-----------------------------------------------------------------------
A-----------------------------------------------------------------------
E-----------------------------------------------------------------------


e-----------------------------------------------------------------------
B---8(10).--8.--8.--(10).--8.--8~---------------------------------------
G---------------------------------------7(9).--(9)(7)-p5----------------
D---------------------------------------------------------5~------------
A-----------------------------------------------------------------------
E-----------------------------------------------------------------------


e-----------------------------------------------------------------------
B-----------------------------------------------------------------------
G--------5.--5--------7(9)-----(7)--7.----------------------------------
D---5/7---------5--5----------------------------------------------------
A-----------------------------------------------------------------------
E-----------------------------------------------------------------------


20170829

ANDRES SEGOVIA MEXICAN FOLKSONG TAB (GP6 + GP5 + PDF)


Andrés Segovia plays Mexican Folksong - brilliant classical guitar playing.
Download the TAB below.



ANDRES SEGOVIA MEXICAN FOLKSONG TAB

GP5 + GP6 + PDF >>

Part 1

e-----7--4--0--5--------0--4--------------------------------------------
B-----5--4--------7--4--0--5--------------------------------------------
G-----4-----7--6--5--4--------------------------------------------------
D--------------------------6--4-----------------------------------------
A--------------------------------7-p6--4--------------------------------
E-----0--------0--------0-----------------------------------------------


e-----0--0--4--7--4--0-----2--------------------------------------------
B-------------------------5---4--2--4-----------------------------------
G------------------------4-------------3-/4-----------------------------
D-----------------4--6--------------------------------------------------
A-----2--4--6--7--------2-----------------------------------------------
E-----0-----------------------------------------------------------------


e-----2--2--0--------0--2-/7------------------------9--\----------------
B-----4--4-----4--4-----0------------6--7--8--9----10--\----------------
G-----2--2--0--2--2-----2------------7--8--9--10--11---\----------------
D--------------4--4--2----------------------------9----\----------------
A-----2-----------------2-----------------------------------------------
E-----------------------------------------------------------------------


20170821

AUTUMN LEAVES TAB (CLASSICAL GUITAR COVER BY NATHALIE JOST)


Autumn Leaves classical guitar cover played by Nathalie Jost
Download the tab below.



AUTUMN LEAVES FINGERSTYLE TAB

GP6 + GP5 + PDF >>

Part 1

e-----------1----------------------------------0------------------------
B------0-1------------3---1--0--------------0---------------------------
G---2-------------2----------------0------2-----------------------------
D-------------0---------------------------------------------------------
A-----------------------------------------------------------------------
E------------------------------3-------3--------------------------------


e--------------0---------0----------------------------------------------
B-------1---0----0-------1-----------3----------------------------------
G--------------------2----------0-2-------------------------------------
D----------------------------3------------------------------------------
A---3-------2--------0--------------------------------------------------
E-----------------------------------------------------------------------


e-----------------------------------------------------------------------
B--------------3--------------------------------------------------------
G-------2--------2--1---------------------------------------------------
D-------------------------2---------------------------------------------
A-----------------------------------------------------------------------
E---1-------1---------0-------0--2-4------------------------------------