20171106

DJANGO REINHARDT TEARS TAB (GUITAR COVER BY SAMANTHA WELLS)

Samantha Wells plays Tears by Django Reinhardt
Nice guitar cover in standard tuning
Download the TAB below



DJANGO REINHARDT TEARS TAB

GP5 + GP6 + PDF >>

Part 1

e---------------------------------3---1---------------------------------
B---------1-----------1---------3------------5/6---5--------------------
G---------2-----------2-------2-------------4---------------------------
D-------2-----------2---------------------0-----------------------------
A---0---------0-3---------0-2-------------------------------------------
E---------------------------------------4-------------------------------


e---------------------------------3---1---------------------------------
B---------1-----------1---------3------------5/6---5--------------------
G---------2-----------2-------2-------------4---------------------------
D-------2-----------2---------------------0-----------------------------
A---0---------0-3---------0-2-------------------------------------------
E---------------------------------------4-------------------------------


e-------0-0---0-1-----1-------------------------------------------------
B-------2-2---2-2-----2-----3-------3---------3-------------------------
G-------0-0---0-0-----0-----2---------2-----2---------------------------
D-------2-----------2-------3-----3-------3-----------------------------
A---1-----------1-----------0-------------------------------------------
E---------------------------------------1---------x---------------------

20171031

SVEIN BAKKEN BARNATRO TAB (INSTRUMENTAL GUITAR COVER)


Svein Bakken plays Barnatro (Childhood Faith) - instrumental guitar cover.
Download the tablature below.



SVEIN BAKKEN BARNATRO TAB

GP5 + GP6 + PDF >>

Part 1

e-----------4------3-4---7----------------------------------------------
B-------5-------------------------------5-4--3-------7-5----------------
G---4------------------------4-----------------6-----------6---4--------
D-----------------------------------------------------------------------
A-----------------------------------------------------------------------
E-----------------------------------------------------------------------


e--------------------4--------------------------------------------------
B----------------5-------7--------4---5--5/7----------------------------
G--------4-----4------------6-------------------------------------------
D---6--7----------------------------------------------------------------
A-----------------------------------------------------------------------
E-----------------------------------------------------------------------


e---------------------------7-------------------------------------------
B---------5---5/9-----8-9--------------5-4--3-------7-5-----------------
G---4-4-------------------------4-------------6-----------6---4---------
D-----------------------------------------------------------------------
A-----------------------------------------------------------------------
E-----------------------------------------------------------------------


20171024

DOROTHY NO CHURCH IN THE WILD TAB (LIVE IN AUSTIN, 2015 #JAMINTHEVAN)


Dorothy - No Church In The Wild live #Jaminthevan
Standard tuning, download the TAB below



DOROTHY NO CHURCH IN THE WILD TAB

GP5 + GP6 + PDF >>

Intro

e-----------------------------------------------------------------------
B-----------------------------------------------------------------------
G-----------------------------------------------------------------------
D--------------------2-----------2h4------------------2-----------------
A--------------2p0-----2------------------------2p0-----4-2---2---------
E---2~---5-2-5-----2-----5-2-5-2-----2~---5-2-5-----2-------5---5-2~----


e-----------------------------------------------------------------------
B-----------------------------------------------------------------------
G-----------------------------------------------------------------------
D--------------------2-----------2h4------------------2-----------------
A--------------2p0-----2------------------------2p0-----4-2---2---------
E---2~---5-2-5-----2-----5-2-5-2-----2~---5-2-5-----2-------5---5-2-0---


Verse

e-----------------------------------------------------------------------
B-----------------------------------------------------------------------
G-----------------------------------------------------------------------
D--------------------2-----------2h4------------------2-----------------
A--------------2p0-----2------------------------2p0-----4-2---2---------
E---2~---5-2-5-----2-----5-2-5-2-----2~---5-2-5-----2-------5---5-2-0---


20171019

THE ELECTROMANIACS LAGRIMAS TAB (GUITAR PRO 6 + PDF)


The Electromaniacs - Lagrimas vintage instrumental guitar song.
Download the TAB below.



THE ELECTROMANIACS LAGRIMAS TAB

GP6 + PDF >>

Part 1

e-----------------------------------------------------------------------
B-----------------------------------------------------------------------
G-------------5-------4-------2---------------5-------4-------2---------
D---2-4-6-7-7---7-5-5---5-3-3---2---2-4-6-7-7---7-5-5---5-3-3---2-------
A-----------------------------------------------------------------------
E-----------------------------------------------------------------------
    x x x x x x x x x x x x x x x   x x x x x x x x x x x x x x x 


e--------12--12--12.--10--10h12--10--10h12p10--8~-----------------------
B---5-/--13------13.--12--12-----12--12-------10~-----------------------
G-----------------------------------------------------------------------
D-----------------------------------------------------------------------
A-----------------------------------------------------------------------
E-----------------------------------------------------------------------


e--------12--12--12--10--10h12--10--10h12p10--8~------------------------
B---5-/--13------13--12--12-----12--12-------10~------------------------
G-----------------------------------------------------------------------
D-----------------------------------------------------------------------
A-----------------------------------------------------------------------
E-----------------------------------------------------------------------

20171014

DOLLY PARTON DO I EVER CROSS YOUR MIND TAB (COVER BY LINDSAY STRAW)

Dolly Parton - Do I Ever Cross Your Mind acoustic guitar cover by Lindsay Straw.
Capo on the 1st fret, standard tuning. (actually on the 2nd but with half step down tuning)
Download the TAB with the lyrics below.



DO I EVER CROSS YOUR MIND TAB

GP5 + GP6 + PDF >>

Intro                        - Capo on the 1st -

e-----------------------------------------------------------------------
B---1---1---1-----1---1---1-----1---1---1-------------------------------
G---------------0---------------0---------------------------------------
D-------0---0h2-----2---0---------------0-------------------------------
A---3-----------------------3-------3-----------------------------------
E-----------------------------------------------------------------------


e-----------------------------------------------------------------------
B---1-----1---1---1-----1---------1-------------------------------------
G-------0---------------0-------0---------------------------------------
D---0h2-----2---0-----------0h2-----------------------------------------
A-------------------3---------------------------------------------------
E-----------------------------------------------------------------------


e-----------------------------------------------------------------------
B-------1---------------0---------0-----1-----1---1-----1---------------
G---0-------------------0-----------------------------------0---0-------
D-----------2---0---------------0-------0h2-0---0-----------------------
A---------------------------0h2-----3---------------3---0-------0-------
E-------------------3---------------------------------------3-----------