20171207

JD MCPHERSON LET THE GOOD TIMES ROLL TAB (GUITAR SOLO)


There is a cool guitar solo in Let The Good Times Roll by JD McPherson
It starts about 1:25 and goes till 2:00
Download the tab in Guitar Pro 6 and in PDF below


JD MCPHERSON LET THE GOOD TIMES ROLL SOLO TAB

GP5 + GP6 + PDF >>

Solo

e---8-8-7-7-5-5---------------------------------------------------------
B---------------8-8-6-6-5-5-------------8-------10---8------------------
G---------------------------7-7-5-5-7/9--------------7h9----------------
D-----------------------------------------------------------------------
A-----------------------------------------------------------------------
E-----------------------------------------------------------------------
    x x x x x x x x x x x x x x x x


e---8-8-7-7-5-5---------------------------------------------------------
B---------------8-8-6-6-5-5-------------8-------10---8------------------
G---------------------------7-7-5-5-7/9--------------7h9----------------
D-----------------------------------------------------------------------
A-----------------------------------------------------------------------
E-----------------------------------------------------------------------
    x x x x x x x x x x x x x x x x


e---8-8-7-7-5-5---------------------------------------------------------
B---------------8-8-6-6-5-5-------------8-------10---8------------------
G---------------------------7-7-5-5-7/9--------------7h9----------------
D-----------------------------------------------------------------------
A-----------------------------------------------------------------------
E-----------------------------------------------------------------------
    x x x x x x x x x x x x x x x x


20171201

JOE BONAMASSA SLOE GIN GUITAR SOLO TAB (LIVE AT ROYAL ALBERT HALL)

Joe Bonamassa live Sloe Gin guitar solo with a Gibson Les Paul at Royal Albert Hall
The solo starts about 5:10 in this video and goes right until 6:40
Download the TAB below



JOE BONAMASSA SLOE GIN SOLO TAB

GP5 + GP6 + PDF >>

~ 5:10

e-----------------------------------------------------------------------
B---13(15)-------13(15)---13(15)~---------------------------------------
G-----------------------------------------------------------------------
D-----------------------------------------------------------------------
A-----------------------------------------------------------------------
E-----------------------------------------------------------------------


e---10--13(15)-13(15)------------(15)(13)p10-13~-----13.----------------
B-----10----------------------------------------------------------------
G-----------------------------------------------------------------------
D-----------------------------------------------------------------------
A-----------------------------------------------------------------------
E-----------------------------------------------------------------------


e---15(17)---(18)-15(17)-----(15)-13---------10-------------------------
B---------------------------------x-15-15~-----10-13(15)~---------------
G-----------------------------------------------------------------------
D-----------------------------------------------------------------------
A-----------------------------------------------------------------------
E-----------------------------------------------------------------------


20171125

THE BEATLES NO REPLY TAB (INSTRUMENTAL GUITAR COVER BY ERIC)


The Beatles - No Reply instrumental guitar cover played by Eric
Download the TAB below.



THE BEATLES NO REPLY INSTRUMENTAL TAB

GP5 + GP6 + PDF >>

Part 1

e-----------------------------------------------------------------------
B-----5-6-5-------------6-5---------------------------------------------
G-----------7-5-------------7-5-4~----------------5---------------------
D---------------7~--------------------------7-5-7---7-5~----------------
A-----------------------------------------------------------------------
E-----------------------------------------------------------------------


e-----------------------------------------------------------------------
B-----5-6-5-------------6-5-----------------5---------------------------
G-----------7-5-------------7-5-4~--------------7-5~--------------------
D---------------7~------------------------------------------------------
A-----------------------------------------------------------------------
E-----------------------------------------------------------------------


e-----------3-3-3-5~------------------------3-3-3-5~--------------------
B-----------5-5-5-5~------------------------5-5-5-5~--------------------
G-----------------------------------------------------------------------
D-----------------------------------------------------------------------
A-----------------------------------------------------------------------
E-----------------------------------------------------------------------

20171120

LA PALOMA BLANCA TAB (CLASSICAL GUITAR COVER)


La Paloma Blanca classical guitar cover
Download the TAB below



LA PALOMA BLANCA TAB

GP5 + GP6 + PDF >>

Part 1

e---5-------5-------5-5-----5-------4-------4-------4-4-----4-----------
B---5-----5-----5---5-----5-5---5---5-----5-5---5---5-----5-5---5-------
G---6---------------6-----6-6---6---4-----4-4---4---4-----4-4---4-------
D-----------------------------------------------------------------------
A-----------------------------------------------------------------------
E---5---------------5---------------0---------------0-------------------


e---5-------5-------5-5-----5-------4-------4-------4-4-----4-----------
B---5-----5-5---5---5-5---5-5---5---5-----5-5---5---5-5---5-5---5-------
G---6-----6-6---6---6-6---6-6---6---4-----4-4---4---4-4---4-4---4-------
D-----------------------------------------------------------------------
A-----------------------------------------------------------------------
E---5---------------5---------------0---------------0-------------------


e---5-------x---0---0-----------------------0---2-----------------------
B---5-------x---------------2---------2--/3-----------------------------
G---6-------x-----------------------------------------------------------
D-------------------------2---------------------------------------------
A-------------------0---------------0-----------------------------------
E---5-------x-------------------0---------------------------------------


20171115

PAULINHO MOSKA NOS BRACOS DE ISABEL TAB


Very nice bossa nova guitar playing in Nos Bracos De Isabel (Paulinho Moska)
Download the TAB below



PAULINHO MOSKA NOS BRACOS DE ISABEL TAB

GP5 + GP6 + PDF >>

Intro

e-----------------------------------------------------------------------
B---6---6-----6-----6---6-----6-----4---4-----4-----6---6-----6---------
G---7---7-----7-----7---7-----7-----5---5-----5-----7---7-----7---------
D---5---5-----5-----5---5-----5-----6---6-----6-----6---6-----6---------
A---6-------6-----6-6-------6-----x-------------------------------------
E-----------------------------------6-------6-----x-6-------6-----x-----


e-----------------------------------------------------------------------
B---6---6-----6-----6---6-----6-----4---4-----4-----6---6-----6---------
G---7---7-----7-----7---7-----7-----5---5-----5-----7---7-----7---------
D---5---5-----5-----5---5-----5-----6---6-----6-----6---6-----6---------
A---6-------6-----6-6-------6-----x-------------------------------------
E-----------------------------------6-------6-----x-6-------6-----x-----


Verse

e-----------------------------------------------------------------------
B---8---8-----8-----4---4-----4-----3---3-----3-----2---2-----2---------
G---7---7-----7-----4---4-----4-----3---3-----3-----3---3-----3---------
D---8---8-----8-----3---3-----3-----1---1-----1-----2---2-----2---------
A---6-------------------------------3-------3-----3-3-------3-----x-----
E-----------6-----x-3-------3-----3-------------------------------------