20121213

THE EAGLES HOTEL CALIFORNIA TAB (INTRO)


The Eagles - Hotel California acoustic guitar intro played by Teague Purtell
It's in standard tuning and no Capo is used
Download the TAB under the video



HOTEL CALIFORNIA INTRO TAB

PDF >>

e-7---------------7-------------------------9---------------------------
B-7---------7---------------------------7-------7-----------------------
G-7-----7-------7---------7---9-------9---9---9-------------------------
D-9---9---9---9-------9-----------8---------------8---------------------
A-----------------------------------------------------------------------
E-----------------------------------------------------------------------


e------------7------------------------------------------7---------------
B-------10-------10-------10-------10-------------7---------------------
G-----9----9---9--------9--------9------------7-------7-----------------
D-7-----------------7-----------------------9---9---9-------------------
A----------------------------7---------11-------------------------------
E-----------------------------------------------------------------------


e------------------7-------------------10-----10---------10-------------
B------------8----------------------------7------7----------7------7----
G--------7-------7-------------7.-----------7------7-------------7------
D------9---9---9-----------7h9-----7------------------------------------
A-10-------------------------------------------------9------------------
E-------------------------------------------------------------10--------



e-----------------7--------------------------------9--------------------
B-----------8-------------------8------------7--------------------------
G-------7-------7-------7-----7----------9-------9----------------------
D-----9---9---9-------9----------------8---8---8------------------------
A-7--------------------------------9------------------------------------
E-------------------------0---------------------------------------------