20130430

CHAMARRITA (TERCEIRA) TAB


Chamarrita Ilha da Terceira is a portuguese song played with a special 15 strings guitar
Download the TAB under the video



CHAMARRITA TAB

PDF >>

e-------------9-9--12-12--9------------12---10---9---12--12-12-12-12-12-
B------10-10------------------10----------------------------------------
G-9-9------------------------------9------------------------------------
D-----------------------------------------------------------------------
A-------------------------0------------0--------------------------------
E----------------------------------------------------0------------------


e-0---7--------------12--10--10-10-12-12-9-----------------9---12-------
B---------9----------------------------------10-------10----------------
G-------------9-----------------------------------9---------------------
D-----------------------------------------------------------------------
A----------------------------------------0------------0-----------------
E-0-----------0----------0----------------------------------------------



e-9------------12---10-10-9---12--12-12-12-12-12---10---7---------------
B-----10----------------------------------------------------9-----------
G----------9----------------------------------------------------9-------
D-----------------------------------------------------------------------
A-0------------0--------------------------------------------------------
E-----------------------------0---------------------0-----------0-------


e-12--10--10-10-12-12-9-----------------9---12--14-14-14-14-12--9------9
B-------------------------10-------10------------------------------10---
G------------------------------9----------------------------------------
D-----------------------------------------------------------------------
A---------------------0-------------------------0---------------0-------
E-----0-----------------------------------------------------------------


e-7--7-7-7-7-7---0-----------7---10-10-10-10-----12---11----------------
B--------------------7---8----------------------------------------------
G-----------------------------------------------------------------------
D-----------------------------------------------------------------------
A-----------------------------------------------------------------------
E-0--------------0-----------0---------------0--------------------------


e-12--12-12-12-12-12-------12--12/14-14---14-14-12--9--------9----------
B-------------------------------------------------------10--------------
G-----------------------------------------------------------------------
D-----------------------------------------------------------------------
A-0--------------------0-------------0--------------0-------------------
E-----------------------------------------------------------------------


e-7--7-7-7-7-7---0-----------7---10-10-10-10-----12---11----------------
B--------------------7---8----------------------------------------------
G-----------------------------------------------------------------------
D-----------------------------------------------------------------------
A-----------------------------------------------------------------------
E-0--------------0-----------0---------------0--------------------------


e-12---12-12-12-12-12---12\---------------4--5---7-7-5-5-4-------4------
B-----------------------------------5--7---------------------5-5--------
G-----------------------------6--7--------------------------------------
D-----------------------------------------------------------------------
A-0------------------------------------------0--------------------------
E--------------------------------------------------------0--------------


e-------------------------------------------------------------------4---
B-7-------7---5-------5---3-3-0-------------------------------5--7------
G-----7-7---------6-6-------------1---2---2-2-2-2-------6--7------------
D-----------------------------------------------------------------------
A-------------------------------------0-------------0-------------------
E-0-----------0-----------0---------------------------------------------


e-5---7-7-5-5-4-------4-------------------------------------------------
B-----------------5-5-----7-------7---5-------5---3---0-----------------
G-----------------------------7-7---------6-6-------------1-------------
D-----------------------------------------------------------------------
A-0---------------------------------------------------------------------
E-------------0-----------0-----------0-----------0---------------------


e----------------------0---5-5-5-5-7---9---7-7-5---4-4-4-4-0------------
B-----------------------------------------------------------------------
G-2--2-2-2-2---2-2-2-2--------------------------------------------------
D-----------------------------------------------------------------------
A-0------------------------0-----------0--------------------------------
E--------------------------------------------------0--------------------


e-9---10-10-9---7---7-7-9---10---10-10-9---7---5-5-5-5-----5-5-0--------
B-----------------------------------------------------------------------
G-----------------------------------------------------------------------
D-----------------------------------------------------------------------
A------------------------------------------0-----------0----------------
E-0-------------0-----------0-------------------------------------------


e-5-5-5-5-7---9---7-7-5---4-4-4-4-0-------------------------------------
B-----------------------------------------------------------------------
G-----------------------------------------------------------------------
D-----------------------------------------------------------------------
A-0-----------0---------------------------------------------------------
E-------------------------0---------------------------------------------


e-9---10-10-9---7---7-7-9---10---10-10-9---7---5-5-5-5-----5-5-0--------
B-----------------------------------------------------------------------
G-----------------------------------------------------------------------
D-----------------------------------------------------------------------
A------------------------------------------0-----------0----------------
E-0-------------0-----------0-------------------------------------------


e-5-5-5-5-7---9---7-7-5---4-4-4-4-0-------------------------------------
B-----------------------------------------------------------------------
G-----------------------------------------------------------------------
D-----------------------------------------------------------------------
A-0-----------0---------------------------------------------------------
E-------------------------0---------------------------------------------


e-9---10-10-9---7---7-7-9---10---10-10-9---7---5-5-5-5-5---------------4
B----------------------------------------------------------------5--7---
G----------------------------------------------------------6--7---------
D-----------------------------------------------------------------------
A------------------------------------------0----------------------------
E-0-------------0-----------0-------------------------------------------


e-5---7-7-5-5-4-------4-------------------------------------------------
B-----------------5-5-----7-------7---5-------5---3---0-----------------
G-----------------------------7-7---------6-6-------------1-------------
D-----------------------------------------------------------------------
A-0---------------------------------------------------------------------
E-------------0-----------0-----------0-----------0---------------------


e-------------------------------4---------------------------------------
B-------------------------5--7------------------------------------------
G-2---2-2-2-2-------6--7------------------------------------------------
D-----------------------------------------------------------------------
A-0-------------0-------------------------------------------------------
E-----------------------------------------------------------------------


e-5---7-7-5-5-4-------4--------------------------------------------5--5-
B-----------------5-5-----7-------7---5-------5---3---0------------5--5-
G-----------------------------7-7---------6-6-------------1---2.---6--6-
D------------------------------------------------------------------7--7-
A-0----------------------------------------------------------------0--0-
E-------------0-----------0-----------0-----------0---------------------