20141118

DAVID WAYNE HOTEL CALIFORNIA TAB (INSTRUMENTAL ACOUSTIC GUITAR TAB)


The Eagles - Hotel California instrumental acoustic guitar cover by David Wayne
It's arranged in standard tuning using the original key
Download the TAB under the video



HOTEL CALIFORNIA INSTRUMENTAL ACOUSTIC TAB

GP5 + GP6 + PDF >>

Intro

e-777---------------7-----------------6---------9p6---6-----------------
B-777---------7---------------------------7-----------------------------
G-777---7-------7-----------7---7h9---------6---------------------------
D-999-----9---------------9-------------------8-----8-------------------
A-999-------9-----9-----------------------------------------------------
E-777-------------------7-----------------------------------------------


e-5---5-----7p5---5-------------------------------7---------------------
B-5-----5-------------5---------------------7---------------------------
G-6---------------------6-----6-------7-------7-------------------------
D-7-------7-----7---------------0-------6-------------------------------
A-------------------------7-------7-------7-----7-----------------------
E-----------------------------------------------------------------------


e--7-7-7----------------7-------------------10--------------------------
B--8-8-8----------8---------8-----------------7---7---------7-------7---
G--7-7-7---7--------7---------7-----7.--------------7---------7-------7-
D--9-9-9-----9------------------7h9-----7-------7-----7-7---------------
A-101010-------10----10-----------------------------------------9-------
E-----------------------------------------------------------------------



e-----------------7---------------6---------6-----9---------------------
B-----------8---------8-------8-------7-------7-------------------------
G-----9-------9---------9-------9-------6-------6-----------------------
D-------9-9-----9---------9---------------8-----------------------------
A-7---------------------------------------------------------------------
E-----------------------------------------------------------------------


Verse 1

e-----------------------------------------------------------------------
B-7-7-7.--5-3-5---5/7~----------777-7-7-5~---5-5~-----------------------
G-----------------------------------------------------------------------
D-----------------------------------------------------------------------
A-----------------------------------------------------------------------
E-----------------------------------------------------------------------


e---------------------------------5-7-----------------------------------
B-777-7-7.--5-3-5---5/7~--------7-----5h6p5-3-3h5p3---------------------
G---------------------------------------------------4~------------------
D-----------------------------------------------------------------------
A-----------------------------------------------------------------------
E-----------------------------------------------------------------------


e---------------------------------5--5--5-3--2--2-----------------------
B---3-5-5/7-5-3-3h5-3-------3-5/7-7--7--7-5--3--3-----------------------
G-4-----------------------4---------------------------------------------
D-----------------------------------------------------------------------
A-----------------------------------------------------------------------
E-----------------------------------------------------------------------


e-----------------------------------------------------------------------
B-555-3-5-5.--535-5~--5~---------777h8-7-5-\-3-3h5p3-2------------------
G-----------------------------------------------------------------------
D-----------------------------------------------------------------------
A----------------------------------------------------------44444--------
E----------------------------------------------------------22222--------


 etc ...