20150302

YOSHIHIRO WADA ソロギターでアクアテラリウム TAB (AQUA TERRARIUM SOLO GUITAR)

Yoshihiro Wada plays a brilliant fingerstyle acoustic guitar song.
The name of the original YouTube video is:  ソロギターでアクアテラリウム
He is using Open Dsus4 tuning. See the TAB under the video.


YOSHIHIRO WADA ソロギターでアクアテラリウム TAB                            

PDF >>

                       - Open Dsus4 tuning -

D-7p5-0-7-5p0-3-2---3-------------7p5p0-7-5-0-3-2---3-------------------
A-------0---------3-------0---3.----------0-------3-------0---3.--------
G-----0---------2-----3p0---3-----------0-------------3-0---3-----------
D---------0-----------------------0---------0---------------------------
A---------------------3-----------------------3-------------------------
D-----------------------------------------------------------------------


D-0-----------0---3-----0-------0-----------0-----2-----0-------0-------
A---------0-----------------0-------------3-------3---------3/----------
G-------0---3---0-----3-----3-----------0---------0---------0-----------
D---0h3-------------0-----0---0-----2/3-------3---3---3-----3/----------
A---------------------------------0---------------0-----0---------------
D-5---------------5-----5-----------------------------------------------


D-7---0-7----0-----0-----0-----0---------0-------0----------------------
A---------10---8-----8-----8-------12------12------8--------------------
G---0------------9-----9-----9---0----12------12-----9------------------
D-----------------------------------------------------------------------
A-----------------------------------------------------------------------
D-8-----8------8---9-----9-----9---10------10------10-------------------



D-0---------0-----------------------------------------------------------
A---------0-------7-----------------------------------------------------
G-------0---------6-----------------------------------------------------
D---0h2-------2-/-7-----------------------------------------------------
A-0---------------0-----------------------------------------------------
D-----------------------------------------------------------------------