20170110

GEORGE HARRISON SOMETHING TAB (ELECTRIC GUITAR TAB)


George Harrison - Something electric guitar cover played by Caue Lobo
Awesome electric guitar solo played in standard tuning
Download the TAB under the video



GEORGE HARRISON SOMETHING ELECTRIC GUITAR TAB


Part 1

e-----------------------------------------------------------------------
B-----------------------------------------------------------------------
G------2.--(5)(4)-2.--3-------4-----------------------------------------
D-----------------------------------------------------------------------
A-----------------------------------------------------------------------
E-----------------------------------------------------------------------


e-----------------------------------------------------------------------
B-----------------------------------------------------------------------
G---4/5---5-------5~----------5---4~------------------------------------
D---------------------------5-------------------------------------------
A-----------------------------------------------------------------------
E-----------------------------------------------------------------------


e-----------------------------------------------------------------------
B-----------------------------------------------------------------------
G---5\3-3-3.--3.--5.--5/7-----5.--5-------------------------------------
D----------------------------------5h7~----------\----------------------
A-----------------------------------------------------------------------
E-----------------------------------------------------------------------



e-----------------------------------------------------------------------
B-----------------------------------------------------------------------
G---5h7---7.--7.--7-5~--------7.----------------------------------------
D---------------------------------(8)---(7)---5~-------\----------------
A-----------------------------------------------------------------------
E-----------------------------------------------------------------------


e-----------------------------------------------------------------------
B----------------------------------------------------5------------------
G-------5-----7---5~-------------------7(9).---7-5-7---5----------------
D---x-7---x-7---7----------------------------------------7~---------\---
A-----------------------------------------------------------------------
E-----------------------------------------------------------------------
      x x   x x x

e-----------------------------------------------------------------------
B-----------------------------------------------------------------------
G------2.--(5)(4)-2.--3-------4-----------------------------------------
D-----------------------------------------------------------------------
A-----------------------------------------------------------------------
E-----------------------------------------------------------------------

 etc ...