20171228

DON FELDER HOTEL CALIFORNIA SOLO TAB (ACOUSTIC GUITAR TAB)

Don Felder plays Hotel California acoustic guitar solo live at the Jeff Probst Show
It's in G minor instead of the original B minor - but sounds cool
Download the TAB under the video



DON FELDER HOTEL CALIFORNIA SOLO TAB

GP5 + GP6 + PDF >>

Main Part

e-------------------3-----3-------------------5-------------------------
B-----------------3-----------------------3-------3---------------------
G-------------3-------------3---5-------5-------------------------------
D---------5-------------------------4---------------4-------------------
A-------5---------------------------------------------------------------
E---3-------------------------------------------------------------------


e-------------3-------------------------------------3-------------------
B---------6-------6-------6-------------------3-------------------------
G-------5---------------5---------5-------3-------3---------------------
D---3---------------3-----------3-------5-------------------------------
A---------------------------3-------7-----------------------------------
E-----------------------------------------------------------------------


e-------------------3-------------------------6-------------------------
B-------------4-------------------4-------3-------3---------------------
G---------3-------3-------3-----3-------3-----------------3-------3-----
D-------5-------------------3h5-----3-------------------3-------3-------
A---6-------------------6---------------------------5-------------------
E-----------------------------------------------------------6-----------



e-------------------3-------------------------------5-------------------
B-------------4-------------------------------3-------------------------
G---------5-------5-------5-------5-------5-------5---------------------
D-------5---------------5-------5-------4-------------------------------
A---3-------------------------------5-----------------------------------
E---------------------------3-------------------------------------------


Last thing I remember ...

e-------------------3-----3-------------------5-------------------------
B-----------------3-----------------------3-------3---------------------
G-------------3-------------3---5-------5-------------------------------
D---------5-------------------------4---------------4-------------------
A-------5---------------------------------------------------------------
E---3-------------------------------------------------------------------


e-------------3-------------------------------------3-------------------
B---------6-------6-------6-------------------3-------------------------
G-------5---------------5---------5-------3-------3---------------------
D---3---------------3-----------3-------5-------------------------------
A---------------------------3-------7-----------------------------------
E-----------------------------------------------------------------------


e-------------------3-------------------------6-------------------------
B-------------4-------------------4-------3-------3---------------------
G---------3-------3-------3-----3-------3-----------------3-------3-----
D-------5-------------------3h5-----3-------------------3-------3-------
A---6-------------------6---------------------------5-------------------
E-----------------------------------------------------------6-----------


e-------------------3-------------------------------5-------------------
B-------------4-------------------------------3-------------------------
G---------5-------5-------5-------5-------5-------5---------------------
D-------5---------------5-------5-------4-------------------------------
A---3-------------------------------5-----------------------------------
E---------------------------3-------------------------------------------


Solo

e-----------------------------------------------------------------------
B-------6-8-8/11~---------6-8---------------3---------------------------
G---3/7----------------------7\5~-------3h5---3-------------------------
D-----------------------------------------------5-4~--------------------
A-----------------------------------------------------------------------
E-----------------------------------------------------------------------


e-----------------------------------------------------------------------
B-----------------------------------------------------------------------
G---2-h3p2--------------------------------------------------------------
D----------3-4~----------\----------------------------------------------
A-----------------------------------------------------------------------
E-----------------------------------------------------------------------


e----------------------------------------6------------------------------
B-------3----------------3-----------6/8---8\6-3-6-4/5~-----------------
G---3h5---3----------3h5---3-------3------------------------------------
D-----------5-4-5~-----------5-4-5--------------------------------------
A-----------------------------------------------------------------------
E-----------------------------------------------------------------------





DOWNLOAD THE COMPLETE TAB HERE



  • click 'Free Download'
  • add your e-mail address
  • you will get an e-mail with your download links (in a few seconds)
  • download the Guitar Pro 6 tab + GP5 + PDF for free
  • and that's all ...


Guitar Pro: a complete workshop for guitarists at an affordable price