20180403

HOTEL CALIFORNIA FINGERSTYLE GUITAR TAB


The Eagles - Hotel California fingerstyle tab based on James Bartholomew's version
It's arranged in standard tuning and no Capo is used
Download the TAB under the video



HOTEL CALIFORNIA FINGERSTYLE TAB

GP5 + GP6 + PDF >>

Intro

e-------------------7-------------------------9-------------------------
B-------------7-----------------7.------------------11------------------
G---------7-------7---------7---9.--------9-------9---------------------
D-------9-------9-------------------8---8-------8-----------------------
A-----------------------------------9-------9-------9-------------------
E---7-------7-------7---------------------------------------------------


e-------------7-------------------------------------7-------------------
B---10--------------10------------------------7-------------------------
G---------9-------9---------9-------------7-------7---------------------
D-------7-------7-------7-------7.------6-------6-----------------------
A---0-------0-------0-------0-------7-------7-------7-------------------
E-----------------------------------------------------------------------


e-------------------7----------7h10.------------------------------------
B---8---------8-----------8h10--------10----------------10--------------
G---------7-------7------------------------------11-----------11--------
D-------9-------9-------9--------------------12-------------12------12.-
A---10-----10-------10---------------------12------12.--9---------------
E-------------------------------------10-------10---------------10------



e-------------------7-------------------------------9-------------------
B-------------8-----------8-------------------7-----7-------------------
G---------9-------9-----9-----------------9-----------------------------
D-------9-------9---------------9.------8-------8-----------------------
A---7-------7-------7---------------9-------9-------9-------------------
E---------------------------7-------------------------------------------


e-------------------7---------------------------------------------------
B-------------7-----------------7.------------7-------------------------
G---------7-------7---------7---9.--9-----9--------7-6------------------
D-------9-------9-----------------------8-------------------------------
A-------------------7-------9-------7-------9---------------------------
E---7-------7-----------------------------------10---9------------------


e---5---------7-----5-------7-----------------------7-------------------
B---------5-------5---------------------------7-------------------------
G-----------------------------------------7-------7---------------------
D-------7-------7-------7-------9.------6-------6-----------------------
A---0-------0-------5-------7-------------------------------------------
E-----------------------------------7-------7-------7-------------------


e-------------------7----------7h10.------------------------------------
B-------------8-----------8h10--------10----------------10--------------
G---------7-------7------------------------------11-----------11--------
D-------9-------9-------9--------------------12-------------12------12.-
A---10-----10-------10---------------------12------12.--9---------------
E-------------------------------------10-------10---------------10------


e-------------------7-------------------------------9-------x---x-------
B-------------8-----------8-------------------7-----7-------x---x-------
G---------9-------9-----------------------9-----------------x---x-------
D-------9-------9-------9-------9.------8-------8-----------x---x-------
A---7-------7-------9-------10------9-------9-------9-------x---x-------
E-----------------------------------------------------------------------


Verse

e-------2-2-2---0---0---2---------------2-2-2--0.-0.-0------------------
B---3-------3-----3-------------5.-------------------0------------------
G---4-------4-----------------------3----------------3------------------
D-----4---------------4-------------4----------------4------------------
A---2-------x-------2-----------------4----------------4----------------
E---------------------------x-------2-------x------------2---x---2h4----

 ... etc.




DOWNLOAD THIS TAB IN GUITAR PRO



  • click 'Free Download'
  • add your e-mail address
  • you will get an e-mail with your download links (in a few seconds)
  • download the Guitar Pro 6 tab + GP5 + PDF for free
  • and that's all ...


Guitar Pro: a complete workshop for guitarists at an affordable price