20180903

KFIR OCHAION BEAUTIFUL TAB (INSTRUMENTAL ELECTRIC GUITAR TAB)


Christina Aguilera - Beautiful instrumental electric guitar cover by Kfir Ochaion
Awesome lead guitar playing with an old Fender Stratocaster
Download the TAB under the video



KFIR OCHAION BEAUTIFUL TAB

GP5 + GP6 + PDF >>

Intro

e-----------------------------------------------------------------------
B-------14(16)~----------(14)-14.-13.-13(14)-(13)p11h13p11-13(14)-------
G-----------------------------------------------------------------------
D-----------------------------------------------------------------------
A-----------------------------------------------------------------------
E-----------------------------------------------------------------------


e-----------------------------------------------------------------------
B---13(14)(13)(14)(13)-11\-8-11p8-11(13)~---------------(12)------------
G-----------------------------------------------------------------------
D-----------------------------------------------------------------------
A-----------------------------------------------------------------------
E-----------------------------------------------------------------------


Verse

e-----------------------------------------------------------------------
B--------------------------8(9)------(8)--------------------------------
G----8~----8~-------8--10.---------------8~-----------------------------
D-------8.--------------------------------------------------------------
A-----------------------------------------------------------------------
E-----------------------------------------------------------------------



e-----------------------------------------------------------------------
B-----------------------------------------------------------------------
G---8--h10---/12----------------------------10---/12--------------------
D----------------10~-------------------10------------9~-----------------
A-----------------------------------------------------------------------
E-----------------------------------------------------------------------


e-----------------------------------------------------------------------
B-----------------------------8(9)------(8)-----------------------------
G---/8--8~----8~-------8.-10.---------------8~--------------------------
D----------8.-----------------------------------------------------------
A-----------------------------------------------------------------------
E-----------------------------------------------------------------------


e-----------------------------------------------------------------------
B-----------------------------------------------------------------------
G-----8h10---10/12----------------------------10---/12------------------
D-----------------10~--------------------10------------9~---------------
A-----------------------------------------------------------------------
E-----------------------------------------------------------------------


Chorus

e-----------------------------------------------------------------------
B-----------------------------------------------------------------------
G--------8-10.-10(12)(10)-8~----\-/8-8~-------10(12)-(10)(12)(10)p8~----
D----/10----------------------------------10.---------------------------
A-----------------------------------------------------------------------
E-----------------------------------------------------------------------


e-----------------------------------------------------------------------
B--------------------------------------8--h11---------------------------
G-------10(12)--(10)(12)----(12)(10)----------8~--------  etc.  --------
D---10.-----------------------------------------------------------------
A-----------------------------------------------------------------------
E-----------------------------------------------------------------------




DOWNLOAD THIS TAB IN GUITAR PRO



  • click 'Free Download'
  • add your e-mail address
  • you will get an e-mail with your download links (in a few seconds)
  • download the Guitar Pro 6 tab + GP5 + PDF for free
  • and that's all ...


Guitar Pro: a complete workshop for guitarists at an affordable price