20181022

KFIR OCHAION MY IMMORTAL TAB (INSTRUMENTAL ELECTRIC GUITAR TAB)


Evanescence - My Immortal instrumental electric guitar cover by Kfir Ochaion
Awesome lead guitar playing with an old Fender Stratocaster
Download the TAB under the video



MY IMMORTAL ELECTRIC GUITAR TAB

GP5 + GP6 + PDF >>

Part 1

e-----------------------------------------------------------------------
B-----------------------------------------------------------------------
G-------2~--2~--2~--2-2~---/4/6~~~--------------------------------------
D-----------------------------------------------------------------------
A-----------------------------------------------------------------------
E-----------------------------------------------------------------------


e-----------------------------------------------------------------------
B-----------------------------------------------------------------------
G-----------2~--2~--2-2~----2~------/6~------7p6---\4\2~~~--------------
D-----------------------------------------------------------------------
A-----------------------------------------------------------------------
E-----------------------------------------------------------------------


e-----------------------------------------------------------------------
B-----------------------------------------------------------------------
G------9-9-9~--\7~--6~-------------/9~--9~--\7---6--p4h6---(7)(6)~------
D-----------------------------------------------------------------------
A-----------------------------------------------------------------------
E-----------------------------------------------------------------------



e-----------------------------------------------------------------------
B-----------------------------------------------------------------------
G-----9-9-9-9-9~--9~--\6/9~---------------------------------------------
D-----------------------------------------------------------------------
A-----------------------------------------------------------------------
E-----------------------------------------------------------------------


e-----------------------------------------------------------------------
B---------------------9-------9(10)-(10)~-------------------------------
G----/9~--9~--9~--9-----------------------------------------------------
D-----------------------------------------------------------------------
A-----------------------------------------------------------------------
E-----------------------------------------------------------------------


e-----------------------------------------------------------------------
B----/9~--9~--9~--9~--10~--10~----------/9~--9~--9~--9~--h10~--10~------
G-----------------------------------------------------------------------
D-----------------------------------------------------------------------
A-----------------------------------------------------------------------
E-----------------------------------------------------------------------


e-----------------------------------------------------------------------
B----/9~--9~--9~--9~--9~--9~------9---10~---10(12)------(12)---(10)~----
G-----------------------------------------------------------------------
D-----------------------------------------------------------------------
A----------------------------------------------------------  etc.  -----
E-----------------------------------------------------------------------