20181216

KFIR OCHAION SOMEONE LIKE YOU TAB (INSTRUMENTAL ELECTRIC GUITAR TAB)


Adele - Someone Like You electric guitar cover played by Kfir Ochaion
Awesome lead guitar playing with backing track
Download the TAB under the video



KFIR OCHAION SOMEONE LIKE YOU TAB

GP5 + GP6 + PDF >>

Verse

e-----------------------------------------------------------------------
B-----------2/5~-------------\2~----------------------------------------
G---------------------------------------------4\2~----------------------
D-----------------------------------------------------------------------
A-----------------------------------------------------------------------
E-----------------------------------------------------------------------


e-----------------------------------------------------------------------
B-----------/5---5-2~---------------------------------------------------
G----------------------------4\2~---------------------------------------
D-----------------------------------------------------------------------
A-----------------------------------------------------------------------
E-----------------------------------------------------------------------


e-----------------------------------------------------------------------
B------------5---5-2~---------------------------------------------------
G----------------------------/4\2~--------------------------------------
D-----------------------------------------------------------------------
A-----------------------------------------------------------------------
E-----------------------------------------------------------------------



e-----------------------------------------------------------------------
B----------2/5---5-2~---------------------------------------------------
G-------------------------/4-------\2~----------------------------------
D-----------------------------------------------------------------------
A-----------------------------------------------------------------------
E-----------------------------------------------------------------------


e-----------------------------------------------------------------------
B----------2/5~------\2~----------------5(7)----------------------------
G------------------------------/4---2--------------4(6)-------2~--------
D-----------------------------------------------------------------------
A-----------------------------------------------------------------------
E-----------------------------------------------------------------------


e-----------------------------------------------------------------------
B-----------------------------------------------------------------------
G-----2h4---2-4p2---2'------------------------2-4(6)(4)p2-4~~~----------
D-----------------4--------4~-------------2-4---------------------------
A---------------------------------------------------------  etc.  ------
E-----------------------------------------------------------------------
                  x                         x






DOWNLOAD THIS TAB IN GUITAR PRO



  • click 'Free Download'
  • add your e-mail address
  • you will get an e-mail with your download links (in a few seconds)
  • download the Guitar Pro 6 tab + GP5 + PDF for free
  • and that's all ...


Guitar Pro: a complete workshop for guitarists at an affordable price