20190224

KFIR OCHAION BRING ME TO LIFE TAB (INSTRUMENTAL ELECTRIC GUITAR TAB)


Evanescence - Bring Me To Life electric guitar cover played by Kfir Ochaion
Awesome lead guitar playing with backing track
Download the TAB under the video



KFIR OCHAION BRING ME TO LIFE TAB

GP5 + GP6 + PDF >>

Verse 1

e-----------------------------------------------------------------------
B---10(12)~-------10/12~---12(13)~-----(13)(12)p10~---12---p8~------\---
G-----------------------------------------------------------------------
D-----------------------------------------------------------------------
A-----------------------------------------------------------------------
E-----------------------------------------------------------------------


e-----------------------------------------------------------------------
B----/5-7-8---8-(10)~~~-------------------------------------------------
G-----------------------------------------------------------------------
D-----------------------------------------------------------------------
A-----------------------------------------------------------------------
E-----------------------------------------------------------------------


e-----------------------------------------------------------------------
B---12~-------12p10-13(15)---(15)(13)~-----12p10---12---p8~------\------
G-----------------------------------------------------------------------
D-----------------------------------------------------------------------
A-----------------------------------------------------------------------
E-----------------------------------------------------------------------



e-----------------------------------------------------------------------
B---/5-7-8---8(10)---8~---7(8)(7)~~~-------------\----------------------
G-----------------------------------------------------------------------
D-----------------------------------------------------------------------
A-----------------------------------------------------------------------
E-----------------------------------------------------------------------


e-----------------------------------------------------------------------
B---/5-7-8.--8(10)~~~---------------------------------------------------
G-----------------------------------------------------------------------
D-----------------------------------------------------------------------
A-----------------------------------------------------------------------
E-----------------------------------------------------------------------


e-----------------------------------------------------------------------
B---------5h7-8.--12(13)---12~---p10---12(13)---12(13)(12)~~~-----------
G-----------------------------------------------------------------------
D---------------------------------------------------   etc.   ----------
A-----------------------------------------------------------------------
E-----------------------------------------------------------------------