20190714

KFIR OCHAION ZOMBIE TAB (INSTRUMENTAL ELECTRIC GUITAR TAB)


The Cranberries - Zombie electric guitar cover played by Kfir Ochaion
Advanced lead guitar playing with backing track
Download the TAB under the video



KFIR OCHAION ZOMBIE TAB

GP5 + GP6 + PDF >>

Intro

e-----------------------------------------------------------------------
B-----------------------------------------------------------------------
G-----------------------------------------------------------------------
D---2-2-2-2-2-2-2-2-5-5-5-5-5-5-5-5-5-5-5-5-5-5-5-5-0-0-0-0-0-0-0-0-----
A---2-2-2-2-2-2-2-2-3-3-3-3-3-3-3-3-5-5-5-5-5-5-5-5-x-x-x-x-x-x-x-x-----
E---0-0-0-0-0-0-0-0-----------------3-3-3-3-3-3-3-3-2-2-2-2-2-2-2-2-----


e-----------------------------------------------------------------------
B-----------------------------------------------------------------------
G-----------------------------------------------------------------------
D---2-2-2-2-2-2-2-2-1010101010101010-5-5-5-5-5-5-5-5-0-0-0-0-0-0-0-0----
A---2-2-2-2-2-2-2-2-1010101010101010-5-5-5-5-5-5-5-5-x-x-x-x-x-x-x-x----
E---0-0-0-0-0-0-0-0-8-8-8-8-8-8-8-8--3-3-3-3-3-3-3-3-2-2-2-2-2-2-2-2----


e-----------------------------------7-8~--5h7~--3h5~--2-3-2-------------
B-----------------------------------------------------------3~--3~------
G-----------------------------------------------------------------------
D---2-------------------------------------------------------------------
A---2-------------------------------------------------------------------
E---0-------------------------------------------------------------------



Verse

e-----------------------------------------------------------------------
B---0---/5-3~-----------------------------------------------------------
G--------------4~--/7~--5---4~--2~--5~--4~------------------------------
D-------------------------------------------7~--5~--7\4~----------------
A-----------------------------------------------------------------------
E-----------------------------------------------------------------------


e-----------------------------------------------------------------------
B-------/5-3~-----------------------------------------------------------
G--------------4~--/7~--5---4~------5~--4~------------------------------
D-----2-------------------------7~----------7~--5~--7\4~----------------
A-----------------------------------------------------------------------
E-----------------------------------------------------------------------


e-----------------------------------------------------------------------
B---/8-7-5~--/5-7-5~--/5-7-8~--/5-7-8~--(8)-(7)------(8)-(7)------------
G-----------------------------------------------7\4.---------7~---------
D-----------------------------------------------------------------------
A-----------------------------------------------------------------------
E-----------------------------------------------------------------------


e-----------------------------------------------------------------------
B---/8---10-7~-----/10.-------------------------------------------------
G-----------------------------------------------------------------------
D-----------------------------------------------------------------------
A-----------------------------------------------------------------------
E-----------------------------------------------------------------------

 etc ...






DOWNLOAD THIS TAB IN GUITAR PRO



  • click 'Free Download'
  • add your e-mail address
  • you will get an e-mail with your download links (in a few seconds)
  • download the Guitar Pro 6 tab + GP5 + PDF for free
  • and that's all ...


Guitar Pro: a complete workshop for guitarists at an affordable price