20201112

KANYE WEST RUNAWAY GUITAR TAB (SCOTT MAEDA)


Kanye West - Runaway electric guitar cover played by Scott Maeda
The guitar is tuned down with 2 notes to CFBbEbGC
Download the TAB under the video



KANYE WEST RUNAWAY TAB

PDF + GUITAR PRO >>

#1

C-------16------16------16--------------15------15------15--------------
G-----------------------------------------------------------------------
Eb------------------------------13------------------------------12------
Bb----------------------------------------------------------------------
F-----------------------------------------------------------------------
C-----------------------------------------------------------------------


C-------13------13------13--------------9------9------8------16---------
G-----------------------------------------------------------------------
Eb------------------------------10--------------------------------------
Bb----------------------------------------------------------------------
F-----------------------------------------------------------------------
C-----------------------------------------------------------------------


#2

C-----------------------------------------------------------------------
G-----------------------------------------------------------------------
Eb----------------------------------------------------------------------
Bb----------------------------------------------------------------------
F-----------------------------------------------------------------------
C----4~------------------------4---4h6-3~-------------------------------


C-----------------------------------------------------------------------
G-----------------------------------------------------------------------
Eb----------------------------------------------------------------------
Bb----------------------------------------------------------------------
F----------------------------------/4~----------------------------------
C---3--\1-1~---------------3---4----------------------------------------


C-----------------------------------------------------------------------
G-----------------------------------------------------------------------
Eb----------------------------------------------------------------------
Bb----------------------------------------------------------------------
F---4--h6---6---\-------------------------------------------------------
C-------------------4~--------------------------------------------------

 etc ...