20170721

KALEI GAMIAO SILENT NIGHT TAB (UKULELE COVER)


Kalei Gamiao plays a fantastic instrumental ukulele cover of Silent Night.
Download the Guitar Pro 6 + GP5 and PDF files below.
Part 2 starts about 1:07 in the video.



KALEI GAMIAO SILENT NIGHT UKULELE TAB

GP5 + GP6 + PDF >>

Part 2

A-------------------<12>------------------------------------------------
E---3<15>------------------3<15>-------<12>-----------0-----------------
C---------------0---------------------------------0---------------------
G-----------0----------------------0----------0-----------0---0---------


A-------------------<12>--------------------------------------5---------
E---3<15>------------------3<15>-------<12>-----------0-----------------
C---------------0---------------------------------0---------------------
G-----------0----------------------0----------0-----------0-------------


A---5---------------5-------2---------------0---2/3---------------------
E---------------3-----------1-----------1-------------------------------
C-----------5---------------2-------2-----------------------------------
G-------0---------------0---0---0---------------------------------------


A---3---------------3---------------------------------------------------
E-----------0---------------3-----------3-------------------------------
C-----------------------------------0-----------------------------------
G-------0-------0-------0-------0-----------0---0-----------------------


20170717

THE HEIGHTS HOW DO YOU TALK TO AN ANGEL TAB (GUITAR SOLO)


The guitar solo starts between 2:17 and 2:40 in How Do You Talk To An Angel.
Download the Guitar Pro 6 tab and the PDF file below.



THE HEIGHTS HOW DO YOU TALK TO AN ANGEL SOLO TAB

GP5 + GP6 + PDF >>

2:17 - 2:40

e------------17-19(21)-------(21)(19)--p17-19--(21)-19~~~---------------
B----------17-----------------------------------------------------------
G-------/18-------------------------------------------------------------
D-----------------------------------------------------------------------
A-----------------------------------------------------------------------
E-----------------------------------------------------------------------


e--------21.-22.-22(24)----22(24)----22(24)~~~--------------------------
B---17------------------------------------------------------------------
G-----------------------------------------------------------------------
D-----------------------------------------------------------------------
A-----------------------------------------------------------------------
E-----------------------------------------------------------------------


e---22--21--19--21(22)---(21)-19--\17-19(21)----(19)~--\----------------
B-----------------------------------------------------------------------
G-----------------------------------------------------------------------
D-----------------------------------------------------------------------
A-----------------------------------------------------------------------
E-----------------------------------------------------------------------

20170712

THE VENTURES SAN ANTONIO ROSE TAB (GP5 + GP6 + PDF)


The Ventures play San Antonio Rose.
Amazing instrumental lead guitar playing.
Download the TAB below.



THE VENTURES SAN ANTONIO ROSE TAB

GP5 + GP6 + PDF >>

Part 1

e-----0---0-1-0-----------------------------------0-------0-------------
B-------4-------3-1p0-----------------------0-------0-------0.----------
G---------------------2-1-------------------1-------2-------1.----------
D-------------------------3-2-0-------------2-------3-------2.----------
A-------------------------------3-2---------2-------3-------2.----------
E-----------------------------------0.----------------------------------


Part 2

e-------5.--7/9---------5.----------------------------------------------
B---5.----------------------5------------5---------5-7.--3p2p1p0--------
G-----------------------------------/6-------7---7----------------------
D-----------------------------------------------------------------------
A-----------------------------------------------------------------------
E-----------------------------------------------------------------------


e------------------0---------------------------5------------------------
B---9----------7---x-------7---5-----------5----------------------------
G---7----------7---7---------------6---------------6--------------------
D---9-------------------------------------------------------------------
A-----------------------------------------------------------------------
E-----------------------------------------------------------------------


20170706

ANA VIDOVICH G MINOR SONATA GUITAR TAB (J. S. BACH)


Ana Vidovich plays Sonata No. 1 in G minor by J. S. Bach
The amazing part from 3:33 - 8:06 is transcribed.
Download the Guitar Pro 6 and PDF files below.



ANA VIDOVICH G MINOR SONATA GUITAR TAB

GP6 + PDF >>

Part 1

e-----------------------------------------------------------------------
B-------------------------------------------4---------------3-----------
G-------7.--7.--7.--7~--5-3-5---2.--3-------3-------2-------------------
D---------------------------------------5.--5.--5---5---3-1-3---0-------
A-----------------------------------------------------------------------
E-----------------------------------------------------------------------


e-------3-------3---3---1---1-------------------------------------------
B---4-------1-------------4-----3---4---------------------3.--3.--3-----
G-------------------3-------2-------0---------3-2-4h5---------0---------
D---1-------1-------0-------0-------------------------4-----------------
A-------------------------------------------3---0-----3-------1---------
E---------------------------------------3-------------------------------


e---------------------------6-------6---5---5---------------------------
B---3---1-------------------6-------------8---7-8---7---------8---------
G---------3-5---2.--3-------7-------5---------------5-8-7-5-------------
D---2-------4-------5---3-------0-------------------0-------8---7-5-----
A---0-------5-------------6-8-------6-----------------------------------
E-------------------3---------------------------------------------------


20170701

ACOUSTICIAN HOTEL CALIFORNIA SOLO TAB (THE EAGLES)


The Eagles - Hotel California solo part played on acoustic guitar by Acoustician.
His name is Juha Järvinen and he adds a nice improvisation at the end (~ 2:14)
Download the Guitar Pro 6 and PDF tab below.



ACOUSTICIAN HOTEL CALIFORNIA SOLO TAB

GP5 + GP6 + PDF >>

e-----------------------------------------------------------------------
B----------10h12/15~-------10h12-------------7--------------------------
G---6/11------------------------11\9~----7h9---7------------------------
D------------------------------------------------9-8~-------------------
A-----------------------------------------------------------------------E-----------------------------------------------------------------------


e-----------------------------------------------------------------------
B-----------------------------------------------------------------------
G-----------------------------------------------------------------------
D---9-h12p9-7--/8~------------------------------------------------------
A-----------------------------------------------------------------------
E-----------------------------------------------------------------------


e-----------------------------------------10----------------------------
B-------7---------------7-----------10/12----12\10~--7-10-9~------------
G---7h9---7---------7h9---7-------7-------------------------------------
D-----------9-8-9~----------9-8-9---------------------------------------
A-----------------------------------------------------------------------
E-----------------------------------------------------------------------