20170812

ADUNBEE IN DREAMS TAB (LORD OF THE RINGS THEME GUITAR COVER)

Adunbee plays In Dreams - Lord of the Rings theme guitar cover.
She plays it in Dropped-D tuning.
Download the tab below.



ADUNBEE IN DREAMS TAB

GP5 + GP6 + PDF >>

(Dropped D tuning)

e-----------------------------------------------------------------------
B-----------------------------------------------------------------------
G-----------5-----------------------------------------------------------
D---3-5-7-------7------5h7p5p3------------------------------------------
A---3----------------------------3--------------------------------------
D---3--------------------------------3----------------------------------


e-----------------------------------------------------------------------
B-----------------------------------------------------------------------
G-----5-7-----10-9------------------------------------------------------
D---7---0-----8------10---7-----7h8p7p0-5~------------------------------
A---0---x-----8-----------8-------------3~------------------------------
D---0---8-----8---------------------------------------------------------


e-----------------------------------------------------------------------
B-----------------------------------------------------------------------
G-----------5-----------------------------------------------------------
D---3-5-7-------7------5h7p5p3------------------------------------------
A---3----------------------------3--------------------------------------
D---3--------------------------------3----------------------------------


20170807

BEE GEES HOW DEEP IS YOUR LOVE TAB (FINGERSTYLE GUITAR COVER BY GIAN PIERO FERRINI)

Gian Piero Ferrini plays a great fingerstyle guitar cover of How Deep Is Your Love.
Dropped D tuning with CAPO on the 2nd fret. (original song by Bee Gees)
Download the Guitar Pro 6 and PDF files below.



GIAN PIERO FERRINI HOW DEEP IS YOUR LOVE TAB

GP6 + PDF >>

Intro

e-----------------------------------------------------------------------
B-----------------------0-------------------------------0---------------
G-----------0--h2---------------0---------------2---------------0-------
D-------0-----------0-------0-----------0--h4-------4-------4-----------
A-----------------------------------------------------------------------
D---5-------------------------------5-----------------------------------


e-----------------------------------------------------------------------
B---------------0-------------------0h1-----------------1---------------
G-----------0-----------0-------0---0-----------0-----------------0-----
D-------2-----------2-------2-------2-------2-------2-------0h2---------
A---3-------------------------------0-----------------------------------
D-----------------------------------------------------------------------


e-----------------------------------------------------------------------
B-----------------------0-------------------------------0---------------
G-----------0--h2---------------0---------------2---------------0-------
D-------0-----------0-------0-----------0--h4-------4-------4-----------
A-----------------------------------------------------------------------
D---5-------------------------------5-----------------------------------

 

20170801

STEVE TERREBERRY CARELESS WHISPER TAB (SOLO)


Steve Terreberry plays an instrumental cover of Careless Whisper by George Michael.
There is a cool solo at 2:40 and it goes until about 3:30.
Download this guitar solo tab below.



STEVE TERREBERRY CARELESS WHISPER SOLO TAB

GP5 + GP6 + PDF >>

Solo 

e---20(22)-----20(22)-----20(22)~~~-----------------(22)(20)-17-18------
B-----------------------------------------------------------------------
G-----------------------------------------------------------------------
D-----------------------------------------------------------------------
A-----------------------------------------------------------------------
E-----------------------------------------------------------------------


e---20-18-17--17-18-20-18-17--17-18-20-18-17--17-18-20-18-17--17-18-----
B-----------20--------------20--------------20--------------20----------
G-----------------------------------------------------------------------
D-----------------------------------------------------------------------
A-----------------------------------------------------------------------
E-----------------------------------------------------------------------


e---20-18-17--17-18-20-18-17--17-18-20-18-17--17-18-20-18-17--17--------
B-----------20--------------20--------------20--------------20--20------
G-----------------------------------------------------------------------
D-----------------------------------------------------------------------
A-----------------------------------------------------------------------
E-----------------------------------------------------------------------

20170727

THE BEATLES IN MY LIFE TAB (INSTRUMENTAL GUITAR COVER BY ROBERTO BARALLOBRE)


Roberto Barallobre plays a great instrumental guitar cover of In My Life by The Beatles.
Download the TAB below.



THE BEATLES IN MY LIFE INSTRUMENTAL TAB

GP5 + GP6 + PDF >>

Part 1

e-----------------------------------------------------------------------
B-----------------------------------------------------------------------
G---0-------0-2-5-4~------------------0-------0-2-5-4~------------------
D-----------------------------------------------------------------------
A-----------------------------------------------------------------------
E-----------------------------------------------------------------------


e-----------------------------------------------------------------------
B---------------------------8-------------------------------------------
G---------5---5---7---7/9-----9~----------------------------------------
D---5-5h7---------------------------------------------------------------
A-----------------------------------------------------------------------
E-----------------------------------------------------------------------


e-----------------------------------------------------------------------
B-------------------------------4/5-5~----------------------------------
G---7h9-7~---\-5-5~-----------------------------------------------------
D-----------------------6/7-5-------------------------------------------
A-----------------------------------------------------------------------
E-----------------------------------------------------------------------

20170721

KALEI GAMIAO SILENT NIGHT TAB (UKULELE COVER)


Kalei Gamiao plays a fantastic instrumental ukulele cover of Silent Night.
Download the Guitar Pro 6 + GP5 and PDF files below.
Part 2 starts about 1:07 in the video.



KALEI GAMIAO SILENT NIGHT UKULELE TAB

GP5 + GP6 + PDF >>

Part 2

A-------------------<12>------------------------------------------------
E---3<15>------------------3<15>-------<12>-----------0-----------------
C---------------0---------------------------------0---------------------
G-----------0----------------------0----------0-----------0---0---------


A-------------------<12>--------------------------------------5---------
E---3<15>------------------3<15>-------<12>-----------0-----------------
C---------------0---------------------------------0---------------------
G-----------0----------------------0----------0-----------0-------------


A---5---------------5-------2---------------0---2/3---------------------
E---------------3-----------1-----------1-------------------------------
C-----------5---------------2-------2-----------------------------------
G-------0---------------0---0---0---------------------------------------


A---3---------------3---------------------------------------------------
E-----------0---------------3-----------3-------------------------------
C-----------------------------------0-----------------------------------
G-------0-------0-------0-------0-----------0---0-----------------------