20160422

AHN JUNG-JAE 'GIRL' TAB (안중재 '소녀' TAB 응답하라 1988 OST)

The video title on YouTube says: 응답하라 1988 OST '소녀'
Incredible fingerstyle guitar playing by Ahn Jung-jae.
See the TAB under the video.



AHN JUNG-JAE 'GIRL' TAB

PDF >>

e-----------------------------------------------------------------------
B-----------------------------------------------------------------------
G-----------------------------------------------------------------------
D-----------------------------------------------------------------------
A-------------------------------7---------------------------------------
E---0-----0-x---0-----------x-----7-0-----0-x---0-----------x-----------
    x     x     x               x x x     x     x


e-----<12>--------------------------------------------------------------
B--<12>-----------------------------------------------------------------
G-----------------------------------------------------------------------
D-----------------------------------------------------------------------
A----------------------------------7------------------------------------
E------0-----0-x---0-----------x-----7-0-----0-x---0--------------------
       x     x     x               x x x     x     x


e------------7----7h9---/10\9p7-----------------------------------------
B---------8/9----9------------------------------------------------------
G-----------------------------------------------------------------------
D---------8/9-----------------------------------------------------------
A-----------------------------------------------------------------------
E---0-------------------------------------------------------------------
    x


20160416

SPANISH EYES TAB (INSTRUMENTAL GUITAR COVER BY STRATPETER)

Stratpeter plays a very nice instrumental guitar cover of Spanish Eyes.
See the TAB under the video.



STRATPETER SPANISH EYES TAB

PDF >>

Part 1

        D7
e-----------------------------------------------------------------------
B-----------------------------------------------------------------------
G-----------------------------------------------------------------------
D-----4-4-4-4-4-4-4-4.--------------------------------------------------
A-----5-5-5-5-5-5-5-5.--------------------------------------------------
E-----------------------------------------------------------------------

   G
e-----------------------------------------------------------------------
B-----------------------------------------------------------------------
G-----------------------------------------------------------------------
D-----------------------------------------------------------------------
A---2-------2---------------2-2---3-5~----------------------------------
E-----------------------------------------------------------------------

                                    D7
e-----------------------------------------------------------------------
B-----------------------------------------------------------------------
G---------------------------2---4/5-5~----------------------------------
D---------------2---4/5-5-----------------------------------------------
A---2-2---3-5-----------------------------------------------------------
E-----------------------------------------------------------------------



20160406

DOUGIE MACLEAN CALEDONIA TAB


Dougie MacLean sings Caledonia - the nr. 1 song of Scotland.
Very nice guitar chords in a special tuning CGCGCE with Capo on the 4th.
See the TAB under the video.



DOUGIE MACLEAN CALEDONIA TAB

PDF >>

Intro

e-----------------------------------------------------------------------
C----------0-----------------0-----------------0-----------------0------
G-------0-----0-----------0-----0-----------0-----0-----------0-----0---
C----0-----------0-----5-----------0-----7-----------0-----9-----------9
G-5-----------5-----7-----------7-----9-----------9-----10----------10--
C-----------------------------------------------------------------------


e-0--------0------------------------------------------------------------
C----0--------0---------------------------------------------------------
G-------0--------0------------------------------------------------------
C-----------------------------------------------------------------------
G-10----------10--------------------------------------------------------
C-----------------------------------------------------------------------


Verse

e-----------------------------------------------------------------------
C----------0-----------------0-----------------0-----------------0------
G-------0-----0-----------0-----0-----------0-----0-----------0-----0---
C----0-----------0-----5-----------0-----7-----------0-----9-----------0
G-5-----------5-----7-----------7-----9-----------9-----10----------10--
C-----------------------------------------------------------------------



DIGIMON LA TABKI YA SAGHIRI TAB (COVER BY HIDA, لا تبكي يا صغيري ابطال الديجيتال TAB)

Digimon - La Tabki Ya Saghiri played on acoustic guitar.
Capo on 2nd fret but the guitar is tuned down 2 steps - so it's actually a normal standard tuning. See the TAB under the video.



DIGIMON LA TABKI YA SAGHIRI TAB

PDF >>

Part 1

e-----------5/7-5~-----------7-9-9/10-----9--\--7.--5~------7~----------
B-------5.--------------------------------------------------------------
G---4/6-----------------------------------------------------------------
D-----------------------------------------------------------------------
A-----------------------------------------------------------------------
E-----------------------------------------------------------------------


e-----------5/7-5~-----------7-9-9/10-----9-- \--7.--5~------7~----------
B-------5.--------------------------------------------------------------
G---4/6-----------------------------------------------------------------
D-----------------------------------------------------------------------
A-----------------------------------------------------------------------
E-----------------------------------------------------------------------


e---5~-----------------------------------------9/10--9.-----------------
B-------------------------------5/7-7~-------------------10-------------
G-----------------------------------------------------------9.----------
D-----------------------------------------------------------------------
A-----------------------------------------------------------------------
E-----------------------------------------------------------------------


20160327

MATCHBOX TWENTY UNWELL TAB (FINGERSTYLE COVER BY THE STRAY ANT)

Great fingerstyle guitar cover of the song Matchbox Twenty - Unwell.
Arranged and played by The Stray Ant. Standard Tuning.
See the TAB under the video.



MATCHBOX TWENTY UNWELL FINGERSTYLE TAB (THE STRAY ANT)

PDF >>

Part 1

e-------5h7p5-----------5h7p5---5---------7p5-----------5h7p5-----------
B---5h7-------7p5---5h7---------5-------------7p5---5h7-----------------
G-----------------------------------------------------------------------
D-----------------------------------0-------------0-------------0-------
A---0-------------0-----------------------------------------------------
E-----------x---------------x---------------x---------------x-----------


e-------5h7p5-----------5h7p5.--4-----------4-------5---4---------4-----
B---5h7-------7p5---5h7---------5-----------5-------5---5-------5-------
G-----------------------------------------------------------------------
D---4-------------4-----------------------------------------------------
A-----------------------------------------------------------------------
E-----------x---------------x-------0-------x-----0---------x-0---------


e-------5h7p5-----------5h7p5---5---------7p5-----------5h7p5-----------
B---5h7-------7p5---5h7---------5-------------7p5---5h7-----------------
G-----------------------------------------------------------------------
D-----------------------------------0-------------0-------------0-------
A---0-------------0-----------------------------------------------------
E-----------x---------------x---------------x---------------x-----------



20160320

THE ROLLING STONES STAR STAR TAB (GUITAR SOLO)

There is a great rock and roll guitar solo in Star Star by The Rolling Stones.
It starts about 2:08 on this record and finishes about 2:38.
See the solo TAB under the video.



THE ROLLING STONES STAR STAR TAB (GUITAR SOLO)

PDF >>

                F
e-----------------------------------------------------------------------
B-----------------------------------------------------------------------
G---12(14)---12(14)---(12)---10------12(14)-12(14)-12(14)(12)-10--------
D---------------------------------------------------------------12------
A-----------------------------------------------------------------------
E-----------------------------------------------------------------------

       C                                                   F
e-----------------------------------------------------------------------
B---13-----------------------13-----------------------------------------
G--------12(14)---(12)-10--10-----12(14)---(12)-10--10-12-(14)(12)------
D------------------------12-----------------------12--------------------
A-----------------------------------------------------------------------
E-----------------------------------------------------------------------

                                          C
e-----------------------------------------------------------------------
B-------------------------13(15)(13)-10---------------------------------
G---10-----12(14)(12)-10---------------12(14)---(12)-10--10-------------
D--------12-------------12-----------------------------12---------------
A-----------------------------------------------------------------------
E-----------------------------------------------------------------------



THE ROLLING STONES DON'T STOP TAB (SOLO)


Short video how to play the guitar solo of Don't Stop by the Rolling Stones.
Not sure but it might be Ronnie who plays it on the original record.
See the TAB under the video.



THE ROLLING STONES DON'T STOP SOLO TAB

PDF >>


e-----------------------------------------------------------------------
B-----------------------------------------------------------------------
G--------9---9h11.----9h11.----11p9------9h11p9-------------------------
D---9h11----------------------------11-9--------11-9--------------------
A-----------------------------------------------------------------------
E-----------------------------------------------------------------------


e-----------------------------------------------------------------------
B-----------------------------------------------------------------------
G----9------------------------------------------------------------------
D---x----11-9\7---9.----7h9.----9p7---7-9/11-9p7------------------------
A-----------------------------------9------------7--/-9-----------------
E-----------------------------------------------------------------------


e-----------------------------------------------------------------------
B-----------------------------------------------------------------------
G--------9---9h11.----9h11.----11p9------9h11p9-------------------------
D---9h11----------------------------11-9--------11-9--------------------
A-----------------------------------------------------------------------
E-----------------------------------------------------------------------



20160313

THE RYDERS GEORGY GIRL TAB (LIVE IN TILBURG 2010)


The Ryders play Georgy Girl instrumentally live in Tilburg.
See the TAB of the lead guitar line under the video.



THE RYDERS GEORGY GIRL TAB

PDF >>

Part 1

e---10-------10-9----9-7.-------7-10---9.-------------------------------
B---------10------10----------8-----------------------------------------
G------11-------------------9-------------------------------------------
D-----------------------------------------------------------------------
A-----------------------------------------------------------------------
E-----------------------------------------------------------------------


e---10-------10-9----9-7.-------7-10.-----------------------------------
B---------10------10----------8-----------------------------------------
G------11-------------------9-------------------------------------------
D-----------------------------------------------------------------------
A-----------------------------------------------------------------------
E-----------------------------------------------------------------------



Part 2

e-----------------------------------------------------------------------
B-----------------------------------------------------------------------
G-----------2~------4---2-2~--------------------------------------------
D---0-------------------------------0-2-4-5-4---0---2-------------------
A-------------------------------------------------------0-0~------------
E-----------------------------------------------------------------------