20150830

CHARLIE PARRA DEL RIEGO TURKISH MARCH TAB (RONDO ALLA TURCA HEAVY METAL COVER)

Charlie Parra del Riego plays a heavy metal cover of Turkish March.
The original video title is: "Rondo alla turca / Turkish March goes Heavy Metal"
See the TAB under the video.


CHARLIE PARRA DEL RIEGO TURKISH MARCH TAB

PDF >>

Part 1

G1
e-----------------------------------------------------------------------
B---12-10-9-10/13~---------15-13-12-13/17~-----------18-17-16-17--------
G-----------------------------------------------------------------------
D-----------------------------------------------------------------------
A-----------------------------------------------------------------------
E-----------------------------------------------------------------------

G2
e-----------------------------------------------------------------------
B-----------------------------------------------------------------------
G-----------------------------------------------------------------------
D-----------------------------------------------------------------------
A--------------7--7--7--7--7--7--7--7-----------------------------------
E--------------5--5--5--5--5--5--5--5-----------------------------------
               x  x  x  x  x  x  x  x 


G1
e---19-17-16-17-19-17-16-17-20-------17--20-----------------------------
B-----------------------------------------------------------------------
G-----------------------------------------------------------------------
D-----------------------------------------------------------------------
A-----------------------------------------------------------------------
E-----------------------------------------------------------------------



20150819

SASA CINDRIC SUNSET IN CROATIA TAB

Saša Cindrić plays his original song called Sunset in Croatia.
Standard tuning - Capo on the 2nd fret.
See the TAB under the video.



SASA CINDRIC SUNSET IN CROATIA TAB

PDF >>



 - CAPO on 2nd -

e---2-0---2-----5-5-7-5-3-3-----2---------5-----3---2-----2h3p2-----0---
B-------3---3---------------0-----0-----2---2-----------3-3-----3-------
G-------------2---------------0-------2-------2---0---2---2-------2-----
D---0-----0-----------------------------------------0-----0-------------
A-----------------------------------0-----0-----------------------------
E-------------------0-----0---------------------------------------------


e---2-0---2-----5-5-7-5-3-3-----2---------5-----3---2-----2h3p2---------
B-------3---3---------------0-----0-----2---2-----0-----3-3-----3---0---
G-------------2---------------0-------2-------2-------2---2-------2-----
D---0-----0-----------------------------------------0-----0-------------
A-----------------------------------0-----0-----------------------------
E-------------------0-----0---------------------------------------------


e---------10--9-7-7-7-----5-----3---------5-----3---2-----2h3p2---------
B-------7-7-----------0-----0-----0-----2---2-----------3-3-----3---0---
G-----7---7-------------0-----0-------2-------2---0---2---2-------2-----
D---0-----0-----------------------------------------0-----0-------------
A-----------------------------------0-----0-----------------------------
E-------------------0-----0---------------------------------------------


20150813

ELLERT NORDMARK LILLA VACKRA ANNA TAB


Ellert Nordmark plays Lilla Vackra Anna.
See the guitar tab under the video.



ELLERT NORDMARK LILLA VACKRA ANNA TAB

PDF >>


Part 1

e-----------------------------------------------------------------------
B-----------------------------------------------------------------------
G-----------------------------------------------------------------------
D---2-------2.--2.--2---------------------------------------------------
A---0-------0.--0.--0---------------------------------------------------
E-----------------------------------------------------------------------


e-----------------------------------------------------------------------
B-----------------------------------------------------------------------
G-----------------------------------------------------------------------
D---------------------2---2---------------------------------------------
A-----0---0---4---4-----------0-0---------------------------------------
E---0---------------------------------4---------------------------------


e-----------------------------------------------------------------------
B-----------------------------------------------------------------------
G---------------------1---1---------------------------------------------
D-------------2---2-----------0-0---------------------------------------
A-----2---2---------------------------4---------------------------------
E---4-------------------------------------------------------------------


20150809

SKEETER DAVIES END OF THE WORLD TAB (INSTRUMENTAL COVER BY JOHN MASON)

John Mason plays a great instrumental guitar cover of End of the World.
Nice Fender Stratocaster !!!
See the TAB under the video.



END OF THE WORLD INSTRUMENTAL TAB                                        Download PDF

Part 1

e-----------------------------------------------------------------------
B-------------------------8-6-------------------------------------------
G---7~------7-5-3~------7-------5~--------------------------------------
D-----------------------------------------------------------------------
A-----------------------------------------------------------------------
E-----------------------------------------------------------------------


e-----------------------------------------------------------------------
B-----------------------------------------------------------------------
G---3~------3-2-0-----3---8-7~------------------------------------------
D-----------------------------------------------------------------------
A-----------------------------------------------------------------------
E-----------------------------------------------------------------------


e-----------------------------------------------------------------------
B---------8-----8~------6-8-10~------6---6~-----------------------------
G---5----------------------------------7--------------------------------
D-----------------------------------------------------------------------
A-----------------------------------------------------------------------
E-----------------------------------------------------------------------

20150730

EMINEM MOCKINGBIRD GUITAR TAB (COVER BY D7AVE)

Eminem Mockingbird Guitar played by d7ave.
He is using 1.5 step down tuning. This brings all strings 3 frets lower.
See the TAB under the video.



EMINEM MOCKINGBIRD GUITAR TAB                                                  Download PDF

Part 1

Db-------3---3---3/5---3---2---2----------------------------------------
Ab---0-----------------------------0------------------------------------
E----0-------------------------------0----------------------------------
B----2------------------------------------------------------------------
Gb---2-----------------3------------------------------------------------
Db---0------------------------------------------------------------------


Db---2---2-2-3p2-0-----------0------------------------------------------
Ab---------------------0-------0----------------------------------------
E--------------------0-----0-----0--------------------------------------
B----0------------------------------------------------------------------
Gb----------------------------------------------------------------------
Db---------------0------------------------------------------------------


Db---0------------------------------------------------------------------
Ab---0---0---0---0-------0---0---0--------------------------------------
E----0-------------0-2-------------0------------------------------------
B----2---------------x--------------------------------------------------
Gb---2---------------3--------------------------------------------------
Db---0------------------------------------------------------------------



20150723

VICTOR DE ANDRES BARBIE GIRL TAB (METAL VERSION)


Aqua - Barbie Girl metal version played by Victor de Andres.
He is using standard tuning.
See the TAB under the video.



VICTOR DE ANDRES BARBIE GIRL TAB                                              Download PDF


Part 1

e-----------------------------------------------------------------------
B-------------14--------------------------------------------------------
G---/13----13----14~----\-----/11----11-14(16)-11(13)---(11)-9~---------
D-------14------------------------13------------------------------------
A-----------------------------------------------------------------------
E-----------------------------------------------------------------------


e-----------------------------------------------------------------------
B-----------------------------------------------------------------------
G---9----9h11~--p9---------11-11-11-11-11-11-9-9-11/13-13-13-11-11-11---
D-----11----------11~--9-9----------------------------------------------
A-----------------------------------------------------------------------
E-----------------------------------------------------------------------
                       x x x  x  x  x  x  x  x x       x  x     x  x

e-----------------------------------------------------------------------
B------------14---------------------------------------------------------
G---13----13----14~----\-----/11----11-14(16)-11(13)---(11)-9~----------
D------14------------------------13-------------------------------------
A-----------------------------------------------------------------------
E-----------------------------------------------------------------------


20150719

ERIC CLAPTON COCAINE TAB (SOLO LIVE AT 2004 CROSSROADS GUITAR FESTIVAL)

Eric Clapton's live Cocaine solo from 2004 Crossroads Guitar Festival.
It starts at 1:14 ... enjoy.
See the TAB under the video.



ERIC CLAPTON COCAINE SOLO TAB                                                   Download PDF

(1:14)

e-----------------------------------------------------------------------
B---17(19)--------------------------------------------------------------
G-----------------------------------------------------------------------
D-----------------------------------------------------------------------
A-----------------------------------------------------------------------
E-----------------------------------------------------------------------


e-----------------------------------------------------------------------
B---17(19)---(17)(19)---17(19)------17.-17~-----------15--15~---h17.----
G-------------------------------------------------------16--------------
D-----------------------------------------------------------------------
A-----------------------------------------------------------------------
E-----------------------------------------------------------------------


e-----------------------------------------------------------------12~---
B------------------12-15-12-----------------------------12-15(17)-------
G-------12-14-(16)----------14(16)-14p12--14--12-14(16)-----------------
D---/14---------------------------------14--14--------------------------
A-----------------------------------------------------------------------
E-----------------------------------------------------------------------



20150713

HANSEL PETHIG A WHITER SHADE OF PALE TAB (FINGERSTYLE GUITAR COVER)

Hansel Pethig plays a great fingerstyle guitar cover of "A Whiter Shade of Pale".
Original song by Procol Harum.
Standard tuning with CAPO on the 2nd fret.
See the TAB under the video.


HANSEL PETHIG A WHITER SHADE OF PALE TAB                             Download PDF


Part 1

e-----------------------------------------------------------------------
B---0-----------0---------------0---0-----------------------0-----------
G-----------0---------------2---------------0-------0-----------0-------
D-------0---------------0---------------7---------------7---------------
A-----------------------------------------------9.--5-------------------
E---3---------------2---------------0-----------------------------------


e---0-----------0-------------------------------------------------------
B-----------0---------------7--/8.----0---------0---------------0-------
G-------0-----------------0---------5---5-------------------2-----------
D-----------------------0-------------------2-----------0---------------
A-----------------------------------0-----------------------------------
E---8---------------7-------------------------------3-------------------


e---2-----------2-----------3--/5.--------------------------------------
B-----------5-----------------------3-------3-------3-------0-----------
G-------2---------------2-------------0-----------0-----5-------5-------
D---0-----------------------------------4-------4-----------0-----------
A-------------------3---------------2-----------------------------------
E---------------------------------------------------2-------------------