20160525

THE VENTURES THE HOUSE OF THE RISING SUN TAB (BASED ON THE GUITAR COVER BY AGENTMAN1991)

Nice guitar cover of The House of the Rising Sun based on how The Ventures play it.
The intro/main riff is played better on a live Ventures record - so the tab follows that version. The rest of the tab is based on this cover. All these great solos are included. Good luck :D



THE VENTURES THE HOUSE OF THE RISING SUN TAB

PDF >>

Part 1

e----------0----------------0----------------2----------------1---------
B-------1-----1----------1-----1----------3-----3----------1-----1------
G------2---------2------0---------0------2---------2------2---------2---
D-----2----------------2-------------0--0-------------3--3--------------
A--0----------------3---------------------------------------------------
E-----------------------------------------------------------------------


e----------0------------------------------------------------------------
B-------1-----1-------------3--1--0-------1--1-p0-----------------------
G------2---------2-------1---------------2---------2--1-----------------
D-----2-----------------0---------------2-------------0-----------------
A--0-------------------2-------------0----------------2-----------------
E-------------------0---------------------------------------------------


Part 2

e-----------------------------------------------------------------------
B-----------------------------------------------------------------------
G-----------------------------------------------------------------------
D----------------------------0h2-0--------------------------------------
A--0--0---------2--2h3~------------0-0----------------------------------
E-----------------------------------------------------------------------


20160521

RIOT V TAKE ME BACK TAB (LEAD GUITAR LINE - GUITAR PRO TAB)

Riot V - Take me back lead guitar line.
See the TAB under the video.



RIOT - TAKE ME BACK TAB

PDF >>

Intro

e-----------------------------------------------------------------------
B-----------------------------------------------------------------------
G----------------------------0---2-------5---7~-------------------------
D----------------------------0---2-------5---7~-------------------------
A---5p3p0-6p0-10-7p0-6-5p3p0-------0-0-0--------------------------------
E-----------------------------------------------------------------------
                                   x x x

e-----------------------------------------------------------------------
B----------------------------------------3------------------------------
G----------------------------0---2-------0------------------------------
D----------------------------0---2-------0------------------------------
A---5p3p0-6p0-10-7p0-6-5p3p0-------0-0-0-x------------------------------
E----------------------------------------3------------------------------
                                   x x x

e-----------------------------------------------------------------------
B-----------------------------------------------------------------------
G----------------------------0---2-------5/7-5~-------------------------
D----------------------------0---2-------5/7-5~-------------------------
A---5p3p0-6p0-10-7p0-6-5p3p0-------0-0-0--------------------------------
E-----------------------------------------------------------------------
                                   x x x



20160514

BLUE ENCOUNT DAY X DAY TAB (GUITAR COVER BY ORBIT 1024)

Blue Encount - Day x Day - lead guitar cover.
Played by "orbit1024al" on YouTube.
Attention!!! Half-Step Up tuning, see the TAB under the video.



BLUE ENCOUNT DAY X DAY TAB

PDF >>

Intro

F-----------------------------------------------------------------------
C-----------------------8-8-8-101010.-----------------------------------
Ab----------------------------------------------------------------------
Eb----------------------5-5-5-7-7-7.------------------------------------
Bb----------------------------------------------------------------------
F-----------------------------------------------------------------------


F---12----\----------12-\-----------------------------------------------
C-----------8-/-10-/------8-/-13-/-13-12-x------------------------------
Ab--9-----\----------9--\-----------------------------------------------
Eb----------5-/-7--/------5-/-7--/-10-9--x------------------------------
Bb----------------------------------------------------------------------
F-----------------------------------------------------------------------


F---12----\----------20\19-19\17-17\15-15-15-x--------------------------
C-----------8-/-10-/----------------------------------------------------
Ab--9-----\----------17\16-16\14-14\12-12-12-x--------------------------
Eb----------5-/-7--/----------------------------------------------------
Bb----------------------------------------------------------------------
F-----------------------------------------------------------------------



20160507

JULIE BERGAN RUDE TAB (ACOUSTIC COVER OF THE MAGIC! SONG)

Julie Bergan sings Rude by MAGIC!
Great acoustic cover with just 1 guitar and her brilliant voice.
See the TAB under the video.



JULIE BERGAN RUDE TAB (ACOUSTIC)

PDF >>

Intro

e-----------------------------------------------------------------------
B---------0---------------0---------------0-----------------------------
G-------6-----6---------8-----8---------9-----9-----9/11.---13.---4-----
D-----2-----------2---4-----------4---6-----------6---------------------
A---0-------------------------------------------------------------------
E-------------------7---------------9---------------9/11.---12.---4-----


e-------------------------------------------------0---------------------
B---------0---------------0-------------------0-------------------------
G-------6-----6---------8-----8-----------1-----------------------------
D-----2-----------2---4-----------4-----4-------------------------------
A---0---------------------------------2---------------------------------
E-------------------7---------------0-----------------------------------


Verse

e-----------------------------------------------------------------------
B-----------------------------------------------------------------------
G---6---------------8---------------9---------------4-------------------
D---2---------------4---------------6---------------2-------------------
A---0-------------------------------------------------------------------
E-------------------7---------------9---------------4-------------------



20160501

THE ROLLING STONES UNDER MY THUMB TAB (GUITAR COVER BY HAPPYHOTSTAR)

Under My Thumb by The Rolling Stones from Get Yer Ya Ya's album.
Great lead guitar cover played by Happyhotstar.
See the TAB under the video.



THE ROLLING STONES UNDER MY THUMB TAB

PDF >>

Part 1

e-----------------------------------------------------------------------
B-----------------------------------------------------------------------
G---------6-------------------------------------------------------------
D-----7-9--------------6-7-9------------4-5-7------------4-5-7----------
A---9-------9.--9.--/7-------7.--7\--/5-------5.--5\--/5-------5.--5.---
E-----------------------------------------------------------------------


e-----------------------------------------------------------------------
B-----------------------------------------------------------------------
G---------6-------------------------------------------------------------
D-----7-9--------------6-7-9------------4-5-7------------4-5-7----------
A--/9-------9.--9\--/7-------7.--7\--/5-------5.--5\--/5-------5.--5.---
E-----------------------------------------------------------------------


e-----------------------------------------------------------------------
B-----------------------------------------------------------------------
G---------6-------------------------------------------------------------
D-----7-9--------------6-7-9-----------4-5-7-----------4-5-7------------
A--/9-------9.--9\--/7-------7.--7\--5-------5.--5.--5-------5.--5.-----
E-----------------------------------------------------------------------


20160422

AHN JUNG-JAE 'GIRL' TAB (안중재 '소녀' TAB 응답하라 1988 OST)

The video title on YouTube says: 응답하라 1988 OST '소녀'
Incredible fingerstyle guitar playing by Ahn Jung-jae.
See the TAB under the video.



AHN JUNG-JAE 'GIRL' TAB

PDF >>

e-----------------------------------------------------------------------
B-----------------------------------------------------------------------
G-----------------------------------------------------------------------
D-----------------------------------------------------------------------
A-------------------------------7---------------------------------------
E---0-----0-x---0-----------x-----7-0-----0-x---0-----------x-----------
    x     x     x               x x x     x     x


e-----<12>--------------------------------------------------------------
B--<12>-----------------------------------------------------------------
G-----------------------------------------------------------------------
D-----------------------------------------------------------------------
A----------------------------------7------------------------------------
E------0-----0-x---0-----------x-----7-0-----0-x---0--------------------
       x     x     x               x x x     x     x


e------------7----7h9---/10\9p7-----------------------------------------
B---------8/9----9------------------------------------------------------
G-----------------------------------------------------------------------
D---------8/9-----------------------------------------------------------
A-----------------------------------------------------------------------
E---0-------------------------------------------------------------------
    x


20160416

SPANISH EYES TAB (INSTRUMENTAL GUITAR COVER BY STRATPETER)

Stratpeter plays a very nice instrumental guitar cover of Spanish Eyes.
See the TAB under the video.



STRATPETER SPANISH EYES TAB

PDF >>

Part 1

        D7
e-----------------------------------------------------------------------
B-----------------------------------------------------------------------
G-----------------------------------------------------------------------
D-----4-4-4-4-4-4-4-4.--------------------------------------------------
A-----5-5-5-5-5-5-5-5.--------------------------------------------------
E-----------------------------------------------------------------------

   G
e-----------------------------------------------------------------------
B-----------------------------------------------------------------------
G-----------------------------------------------------------------------
D-----------------------------------------------------------------------
A---2-------2---------------2-2---3-5~----------------------------------
E-----------------------------------------------------------------------

                                    D7
e-----------------------------------------------------------------------
B-----------------------------------------------------------------------
G---------------------------2---4/5-5~----------------------------------
D---------------2---4/5-5-----------------------------------------------
A---2-2---3-5-----------------------------------------------------------
E-----------------------------------------------------------------------



20160406

DOUGIE MACLEAN CALEDONIA TAB


Dougie MacLean sings Caledonia - the nr. 1 song of Scotland.
Very nice guitar chords in a special tuning CGCGCE with Capo on the 4th.
See the TAB under the video.



DOUGIE MACLEAN CALEDONIA TAB

PDF >>

Intro

e-----------------------------------------------------------------------
C----------0-----------------0-----------------0-----------------0------
G-------0-----0-----------0-----0-----------0-----0-----------0-----0---
C----0-----------0-----5-----------0-----7-----------0-----9-----------9
G-5-----------5-----7-----------7-----9-----------9-----10----------10--
C-----------------------------------------------------------------------


e-0--------0------------------------------------------------------------
C----0--------0---------------------------------------------------------
G-------0--------0------------------------------------------------------
C-----------------------------------------------------------------------
G-10----------10--------------------------------------------------------
C-----------------------------------------------------------------------


Verse

e-----------------------------------------------------------------------
C----------0-----------------0-----------------0-----------------0------
G-------0-----0-----------0-----0-----------0-----0-----------0-----0---
C----0-----------0-----5-----------0-----7-----------0-----9-----------0
G-5-----------5-----7-----------7-----9-----------9-----10----------10--
C-----------------------------------------------------------------------