20170623

THE SQUARE TRAVELERS TAB (GUITAR SOLO PARTS)


The Square (T-Square) - Travelers guitar solo cover. Solo 1 and Solo 2.
In the original song you can find these parts at 0:19 and 2:17.
Download the Guitar Pro 6, GP5 and PDF files below.



THE SQUARE TRAVELERS SOLO TAB

GP5 + GP6 + PDF >>

Solo 1   (0:19 - 1:27)

e-----------------------------8.--8h10----------------------------------
B---/10-----------8-10.--11.-------------10~----------------------------
G-----------------------------------------------------------------------
D-----------------------------------------------------------------------
A-----------------------------------------------------------------------
E-----------------------------------------------------------------------


e-----------------------------8.--8h10----------------------------------
B---/10-----------8-10.--11.-------------10~----------------------------
G-----------------------------------------------------------------------
D-----------------------------------------------------------------------
A-----------------------------------------------------------------------
E-----------------------------------------------------------------------


e-----------------------------8.--8h10----------------------------------
B---/10-----------8-10.--11.-------------10~----------------------------
G-----------------------------------------------------------------------
D-----------------------------------------------------------------------
A-----------------------------------------------------------------------
E-----------------------------------------------------------------------


20170618

DAVE MONK DREAM LOVER TAB (INSTRUMENTAL GUITAR COVER OF BOBBY DARIN'S SONG)


Dave Monk plays an instrumental guitar cover of Dream Lover by Bobby Darin.
Download the TAB below.



DAVE MONK DREAM LOVER TAB

GP5 + GP6 + PDF >>

Part 1

e-----------------------------------------------------------------------
B-------------------------5---------------------------------------------
G-------5---5-5-----5---7-----7-5~----------------------5~--------------
D-----5-----------5--------------------7-7-5-7~---7-5-7------7~---------
A-----------------------------------------------------------------------
E-----------------------------------------------------------------------


e-----------------------------------------------------------------------
B-------------------------5---------------------------------------------
G------5---5~-------5---7-----7-5~----------------------5~--------------
D----5---5--------5--------------------7-7-5-7~---7-5-7------7~---5-7-5-
A-----------------------------------------------------------------------
E-----------------------------------------------------------------------


e-----------------------------------------------------------------------
B-------------------------------------5------------5/6-6-5--------------
G---5-(4)-(5)~-------5/7-7~---------7---7-5~---------------5~-----------
D-----------------------------------------------------------------------
A---- tremolo ----------------------------------------------------------
E-----------------------------------------------------------------------


20170612

DR. VIOSSY & DIANA LONG TRAIN RUNNING TAB (FINGERSTYLE SOLO PART)

Dr. Viossy & Diana play Long Train Running by The Doobie Brothers.
One Dr.Viossy guitar, Diana's great voice and percussion. 1 step-down tuning.
Nice fingerstyle solo part around 1:44 - 2:27. Download this TAB below.



DR. VIOSSY & DIANA LONG TRAIN RUNNING TAB

GP5 + GP6 + PDF >>

Solo  (1:44 - 2:27)

d-----------------------------------------------------------------------
A---------------6.--5-----3.------------10h11--10.----10----8.----------
F---------3.--------------3.------------10-----10.----10----8.----------
C---3h5---3.----5.--5-----------3h5-----10h12---------------------------
G---3h5-x-----x---------------x-3h5-x--------10-------8-----8.----------
D-----------------------------------------------------------------------


d-----------------------------------------------------------------------
A-----8h10--------------------------------------------------------------
F-----8h10p0---3p0-5p0-6/7.----10.----12.--15p0---3p0-5p0-6/7.----------
C--------------3p0-5p0-6/7.----10.----12.--15p0---3p0-5p0-6/7.----------
G----------------------------x------x-----------------------------------
D---8-------------------------------------------------------------------


d------------------6p5p3------------------------------------------------
A------6.--5.--3.-------6p5p3-5p3---------------------------------------
F------5.--5.--3.------------6---6p5p3-5p3------------------------------
C---5h7----5.--3.---------------------5---5-5p3-----3-------------------
G----------------------------------------------5-3h5-5p3-------4/5-8----
D-------------------------------------------------------6-3h6h8---------


20170605

ROD STEWART SEEMS LIKE A LONG TIME TAB (GUITAR SOLO)


Rod Stewart - Seems Like A Long Time guitar solo about 1:40 - 2:08.
Download the Guitar Pro 6, GP5 and PDF files below.



ROD STEWART SEEMS LIKE A LONG TIME SOLO TAB

GP5 + GP6 + PDF >>

(1:40 - 2:08)

e-----------------------------------------------------------------------
B-----------------------------------------------------------------------
G-----7(9)------(9)(7)p5~------5-----------7(9)---(9)(7)p5~-------------
D---5--------------------------5h7p5.----5------------------------------
A-----------------------------------------------------------------------
E-----------------------------------------------------------------------


e-----------------------------------------------------------------------
B---8-------------------------------------------------------------------
G-----7(9)-------(9)(7)p5~---------5------------------------------------
D----------------------------------5h7--p5.-----------------------------
A-----------------------------------------------------------------------
E-----------------------------------------------------------------------


e-----------------------------------------------------------------------
B-------12-12-12-12-12-12------------12-----------10--------------------
G---/12-------------------12-----------------8/10-------10----10.-------
D---/12----12-12-12-12-------12~--12----12.--8/10----10----10-----------
A-----------------------------------------------------------------------
E-----------------------------------------------------------------------


20170527

NIR SHOR ANGELS & DEMONS TAB (EPIC GUITAR ROCK COVER)

Hans Zimmer - Angels & Demons guitar cover played by Nir Shor.
The YouTube video title says: 'EPIC GUITAR ROCK COVER'
Download the Guitar Pro 6 + GP5 and PDF files below.



ANGELS & DEMONS TAB

GP5 + GP6 + PDF >>

e------------------------------7----------------------------7-----------
B-----------------6---9---10-------------------6---9---10---------------
G---9---7---9---9----------------9---7---9---9--------------------------
D-----------------------------------------------------------------------
A-----------------------------------------------------------------------
E-----------------------------------------------------------------------
    x   x   x   x x   x   x    x x   x   x   x x   x   x    x


e------------------------------7----------------------------7-----------
B-----------------6---9---10-------------------6---9---10---------------
G---9---7---9---9----------------9---7---9---9--------------------------
D-----------------------------------------------------------------------
A-----------------------------------------------------------------------
E-----------------------------------------------------------------------
    x   x   x   x x   x   x    x x   x   x   x x   x   x    x


e-----------------------------------------------------------------------
B---12---13--------13-12--------10---12---------------------------------
G-------------9~-----------9~-------------------------------------------
D-----------------------------------------------------------------------
A-----------------------------------------------------------------------
E-----------------------------------------------------------------------