20141214

THE BEAUMONT RAG TAB (FLATPICKING COVER BY SHANE BUMGARNER)

The original video title says: Flatpicking The Beaumont Rag.
Great song played with two acoustic guitars.
See the TAB under the video.


THE BEAUMONT RAG FLATPICKING TAB                                           Download PDF

Intro

e-----------------------------0-----------------------------------------
B---------------------1---3---------------------------------------------
G-----------------------------------------------------------------------
D-----------------------------------------------------------------------
A-2h3-3-3-3---3-3-3-----------------------------------------------------
E-----------------------------------------------------------------------


Part 1

  G                               C
e-1-3-1-0---0-----------------------0---0-------------------------------
B---------3---3-1---0---0---------4---4---1-----1-----------------------
G-----------------3---3---0---0-2-----------2-0---2-0---------0---------
D-----------------------------------------------------2-0---------------
A---------------------------------------------------------3-------------
E-----------------------------------------------------------------------

  G                               C
e-----------------------------------------------------------------------
B-----------------------------------------------------------------------
G-------0---2-0---------0---2-0---------------0-----------0---0---------
D-0-2-3-----------0-2-3-----------------0-2-3-----------0---------------
A---------------------------------3-2-3-----------3-2-3-----------------
E-----------------------------------------------------------------------


20141207

THE CHANTAYS CRYSTAL T TAB (COVER BY THE DUO-TONES)

The Duo Tones cover Crystal T from the band called The Chantays.
Great song from California beach. Attention! The TAB covers the original acoustic album version but the guys play it almost note-for-note.


THE CHANTAYS CRYSTAL T TAB                                                          Download PDF

Intro

  Am                                  Dm
e-----------------------------------------------------------------------
B-----------------------------------------------------------------------
G-----------------------------------------------------------------------
D-------2--------------------------------3------------------------------
A-3-2-3-----0----------------------3-2-3-----0--------------------------
E-----------------------------------------------------------------------

    Am                Dm              E
e-----------------------------------------------------------------------
B-----------------------------------------------------------------------
G-----------------------------------------------------------------------
D-------2-------------3-----2h3p2-0-------------------------------------
A-3-2-3-------3---0-------------------2---------------------------------
E---------------------------------------0-----0-1-3-1-0-----------------

  Am                               Dm
e-----------------------------------------------------------------------
B-----------------------------------------------------------------------
G-----------------------------------------------------------------------
D-------2--------------------------------3------------------------------
A-3-2-3-----0----------------------3-2-3-----0--------------------------
E-----------------------------------------------------------------------


20141130

WYCLEF JEAN ERIC CLAPTON WONDERFUL TONIGHT TAB (SOLOS PLAYED LIVE IN CARNEGIE HALL)

Great version of Wonderful tonight played by Wyclef Jean and Eric Clapton live at Carnegie Hall. Nice and easy guitar playing with the special Fender Stratocaster.
See all the lead guitar parts TAB under the video.


WYCLEF JEAN ERIC CLAPTON WONDERFUL TONIGHT SOLO TAB        Print PDF

Intro solo (0:27)

e-----------------------------------------------------------------------
B-----10(12)-(10)(12)(10)p8.--10~-----------------------8h10p8~---------
G-7.------------------------------------------------7-9-----------------
D-----------------------------------------------------------------------
A-----------------------------------------------------------------------
E-----------------------------------------------------------------------


e-----------------------------------------------------------------------
B-----8.--10(12).--(12)(10)p8-----8~------10-8---8~--10.--8~----\-------
G-7-9-------------------------9.------9.-------9------------------------
D-----------------------------------------------------------------------
A-----------------------------------------------------------------------
E-----------------------------------------------------------------------


e-----------------------------------------------------------------------
B-----10(12)-(10)(12)(10)p8---10~---------------------------------------
G-7--------------------------------------7.-----------------------------
D-----------------------------------------------------------------------
A-----------------------------------------------------------------------
E-----------------------------------------------------------------------

THE ROLLING STONES DEAD FLOWERS TAB (MAIN SOLO PART)

Brilliant Keith Richards guitar solo on the '71 album in the middle of Dead Flowers.
There are some cool lead parts throughout the whole song, the main solo is at 2:35.
The great thing is that Keith Richards only uses one pentatonic scale.
See the solo TAB under the video.


THE ROLLING STONES DEAD FLOWERS SOLO TAB

2:35
        D                       A             G                  D
e------------------7----------------------------------------------------
B--------------------10-----------------------10------------------------
G-----7-9(11)-----------(11)(9)-----------7------(11)(9)p7-9-7---7~-----
D-7h9---------------------------------7h9---9------------------9--------
A-----------------------------------------------------------------------
E-----------------------------------------------------------------------

                                      A
e---------10------------------------------------------------------------
B------------10(12)---10-8-10-------------------------------------------
G-----7-----------------------9(11)---7---7-7~--------------------------
D-7h9---9-------------------------------9-------------------------------
A-----------------------------------------------------------------------
E-----------------------------------------------------------------------

        G                      D
e-----------------------------------------------------------------------
B-------10--------------------------------------------------------------
G-----7----(11)(9)p7-9-7---7~-------------------------------------------
D-7h9--------------------9----------------------------------------------
A-----------------------------------------------------------------------
E-----------------------------------------------------------------------

20141124

TIESTO ADAGIO FOR STRINGS TAB (FINGERSTYLE COVER BY ROBERT HEDENBORG)

The original Adagio for strings melody was written by Samuel Barber.
There is a great fingerstyle guitar arrangement played by Robert Hedenborg.
See the TAB under the video.



TIESTO ADAGIO FOR STRINGS TAB                                                              Print PDF

Part 1

e-5-------5---4---5---7---4---5---7---5---7---8-------------------------
B-6-------5---5---5---5---5---5---5---5---5-----------------------------
G-----------------------------------------------------------------------
D-0---------------------------------------------------------------------
A-----------------------------------------------------------------------
E---------0---------------0---------------------------------------------


e------7---8----7----8----10--------------------------------------------
B-10-------10---10---10----------12-----------10------------------------
G-----------------------------------------------------------------------
D-----------------------------------------------------------------------
A-8--------8---------8-----------10-------------------------------------
E-----------------------------------------------------------------------


e-----------------------------------------------------------------------
B---------------------0-----------0-------0---1-------------------------
G-2-------2---1---2-------1---2-------2---------------------------------
D-----------------------------------------------------------------------
A-5---5-----------------------------------------------------------------
E---------0-------0---0---0---0---0---0---0---0-------------------------

20141118

DAVID WAYNE HOTEL CALIFORNIA TAB (ACOUSTIC GUITAR COVER)

David Wayne plays a cool live acoustic guitar cover of Hotel California (The Eagles).
He plays the song in the original key.
See the TAB under the video.



DAVID WAYNE HOTEL CALIFORNIA TAB                                                       Print PDF

Intro

e-777---------------7-----------------6---------9p6---6-----------------
B-777---------7---------------------------7-----------------------------
G-777---7-------7-----------7---7h9---------6---------------------------
D-999-----9---------------9-------------------8-----8-------------------
A-999-------9-----9-----------------------------------------------------
E-777-------------------7-----------------------------------------------


e-5---5-----7p5---5-------------------------------7---------------------
B-5-----5-------------5---------------------7---------------------------
G-6---------------------6-----6-------7-------7-------------------------
D-7-------7-----7---------------0-------6-------------------------------
A-------------------------7-------7-------7-----7-----------------------
E-----------------------------------------------------------------------


e--7-7-7----------------7-------------------10--------------------------
B--8-8-8----------8---------8-----------------7---7---------7-------7---
G--7-7-7---7--------7---------7-----7.--------------7---------7-------7-
D--9-9-9-----9------------------7h9-----7-------7-----7-7---------------
A-101010-------10----10-----------------------------------------9-------
E-----------------------------------------------------------------------

20141115

CAT EYE AUTUMN LEAVES TAB (LEAD GUITAR PARTS)


Finally found the name of the song I discovered earlier in a great mix by Tekiu.
There are some great lead guitar parts at 3:22, at 4:13 and then later at 5:04.
See the TAB of these brilliant guitar solos under the video.



CAT EYE AUTUMN LEAVES TAB                                                                       Print PDF

Solo at 3:22

e---8-10-11.--10-8.-----------------------------------------------------
B-8------------------11.--13~-------------8-11.--9-8.--11.--------------
G---------------------------------------8-------------------8h10~-------
D------------------------------------10---------------------------------
A-----------------------------------------------------------------------
E-----------------------------------------------------------------------


e-----------------------------------------------------------------------
B-----------------------------------------------------------------------
G------8.--8------------------------------------------------------------
D-8h10-------10----------8.--8------------------------------------------
A-------------------8h10-------8~---------------------------------------
E-----------------------------------------------------------------------


e---8-10-11.--10-8.-----------------------------------------------------
B-8------------------11.--13~-------------8-11.--9-8.--11.--------------
G---------------------------------------8-------------------8h10~-------
D------------------------------------10---------------------------------
A-----------------------------------------------------------------------
E-----------------------------------------------------------------------

20141109

SAILORS HORNPIPE TAB (FLATPICKING COVER BY SHANE BUMGARNER)

The original video title says: Flatpicking Sailors Hornpipe.
The old irish song played with two acoustic guitars.
See the TAB under the video.


SAILORS HORNPIPE TAB                                                                              Print PDF


Intro

e-----------------------------------------------------------------------
B-----------------------------------------------------------------------
G-----------------------------------------------------------------------
D-0-------0-------0-------0---------------------------------------------
A-3/5---5-5---5-5-5---5-5-5---------------------------------------------
E-----------------------------------------------------------------------


Guitar 1
      D                               E               A       
e-------------------------------2-0---0-----------0---------------------
B-3-2-3-------------------3-2-3-----3---------------3-2-0---------------
G-----------------2-0---2---------------------------------2-1-2---------
D---------0---0-4-----4-------------------2.--2-------------------------
A-----------------------------------------------------------------------
E-----------------------------------------------------------------------

      D       G       A       D       A               D
e-----------------------------------------------------------------------
B-0-2-3-2-0---0-------------------------------------------3.--3---------
G-----------2---2-0---0---------------------------0-------2.--2---------
D-------------------4---4-2-0-2-0-----------0-2-4---2-4---0.--0---------
A---------------------------------4-2-0-2-4-----------------------------
E-----------------------------------------------------------------------