20170420

ALELA DIANE LADY DIVINE TAB (WITH LYRICS)


Alela Diane sings Lady Divine with a single acoustic guitar.
She put the Capo on the 7th and uses standard tuning.
See the TAB below.



ALELA DIANE LADY DIVINE TAB

GP5 + GP6 + PDF >>

Intro

e-----------------------------------------------------------------------
B---------0-------0-------0-------0-------0-------0-------0-------0-----
G-----0-------0-------0-------0-------0-------0-------0-------0---------
D-------0-------0-------0-------0-------0-------0-------0-------0-------
A-----------2---------------2---------------2---------------2-----------
E---3---------------3---------------3---------------3-------------------


Verse

e-----------------------------------------------------------------------
B---------0-------0-------0-------1-------1-------1-------1-------0-----
G-----0-------0-------0-------0-------0-------0-------0-------0---------
D-------0-------0-------0-------0-------2-------2-------2-------0-------
A-----------2---------------2-------3-------3-------3-------3-----------
E---3---------------3---------------------------------------------------


e-----------------------------------------------------------------------
B---------0-------0-------0-------1-------1-------1-------1-------0-----
G-----0-------0-------0-------0-------0-------0-------0-------0---------
D-------0-------0-------0-------0-------2-------2-------2-------0-------
A-----------2---------------2-------3-------3-------3-------3-----------
E---3---------------3---------------------------------------------------


20170414

CALIFORNIA BLUE GUITAR INSTRUMENTAL TAB (ROY ORBISON)


Roy Orbison - California Blue easy instrumental guitar cover.
Download the Guitar Pro 6 + GP5 and PDF files below.



ROY ORBISON CALIFORNIA BLUE INSTRUMENTAL TAB

GP5 + GP6 + PDF >>

Part 1

  D           D                             G
e-----------------------------------------------------------------------
B-----------------------------------------------------------------------
G-----------------------------------------------------------------------
D-----------------------------------------------------------------------
A---5-7-7/9---9-----------------9-9-10----9-5---------------------------
E-----------------------------------------------------------------------

                A                         D
e-----------------------------------------------------------------------
B-----------------------------------------------------------------------
G-----------------------------------------------------------------------
D---5-5-5-----4---------------------------------------------------------
A---------------4-------------7-7-7-5-7-7/9-----------------------------
E-----------------------------------------------------------------------

              D                             G
e-----------------------------------------------------------------------
B-----------------------------------------------------------------------
G-----------------------------------------------------------------------
D-----------------------------------------------------------------------
A---5-7-7/9---9-----------------9-9-10----9-5---------------------------
E-----------------------------------------------------------------------


20170409

DEL SHANNON RUNAWAY TAB (INSTRUMENTAL GUITAR COVER)


Del Shannon - Runaway instrumental guitar cover played by MatevzB.
See the TAB under the video.



DEL SHANNON RUNAWAY INSTRUMENTAL TAB

GP5 + GP6 + PDF >>

e-----------------------------------------------------------------------
B---------------------------------5-3-----------------------------------
G-------2-------2/4---2---4-5---------------4---------------------------
D-----------------------------------------------------------------------
A-----------------------------------------------------------------------
E-----------------------------------------------------------------------


e-----------------------------------------------------------------------
B-----------------3-----------------------------------------------------
G---2-----2-4-------5~------2-------------------------------------------
D-----5-----------------------------------------------------------------
A-----------------------------------------------------------------------
E-----------------------------------------------------------------------


e-----------------------------------------------------------------------
B-----------------------------------------------------------------------
G-----------2-----2/5---4~----------------------------------------------
D---5-3---5-------------------------------------------------------------
A-----------------------------------------------------------------------
E-----------------------------------------------------------------------


20170404

BIG BILL BROONZY GLORY OF LOVE TAB (INTRO)


Big Bill Broonzy - Glory Of Love guitar cover played by Eddie.
The intro part is so cool that it worth a try.
Download the Guitar Pro 6, GP5 and PDF files below.



BIG BILL BROONZY GLORY OF LOVE TAB

GP5 + GP6 + PDF >> 

Intro 

e---------0---------------------1.----1---------------------------------
B-------1-----------1-----------0.----0-----0---------------------------
G---------------------2---0-----0.----0-------2---0---------------------
D-----------------------------------------------------------------------
A---x-----3-----3-----3-----3-----x-----x-----x-----x-------------------
E---3-----x-----x-----x-----x-----3-----3-----3-----3-------------------


e---3.----3-------------------3.----1-----------------------------------
B---1.----1-------------------1.----1-----1-----------------------------
G---0.----0-----------------------------2-----2-------------------------
D-----------------------------------------------------------------------
A-----3-----3-----3-----3-----x-----x-----x-----x-----------------------
E-----x-----x-----x-----x-----1-----1-----1-----1-----------------------


e---------0.------0-----------------------------------------------------
B---1-----1.----1-----3p1---------3.----1h3-----0-----------------------
G---0-----------------------0-----0.----0-----0-------------------------
D---------------------------0-------------------------------------------
A-----3-----3-----3-----3-----x-----x-----x-----x-----------------------
E-----x-----x-----x-----x-----3-----3-----3-----3-----------------------


20170329

SLASH PARADISE CITY INTRO TAB (MADE IN STOKE)


Slash plays a cool intro in the first 47 seconds. Paradise City - Made In Stoke.
Half-step down tuning - as usual.
Good luck!



SLASH PARADISE CITY INTRO TAB (MADE IN STOKE)

PDF >>

eb----------------------------------------3-----------------------------
Bb-----------1----------------------------3-------0h1p0-----------------
Gb--------------------------------0-------0-------0---------------------
Db-----0h2--------------------0h2---0-------------0---------------------
Ab---3-----3-----3------------------------------------------------------
Eb------------------------------------3---------------------------------


eb----------------------------------------------------------------------
Bb-----------------1----------1h3---1h3---1---0-------------------------
Gb----------------------------0-----0-------------------0---------------
Db-----------0h2--------------------------------------0-----------------
Ab-----2h3-------3----------------------------------2-------------------
Eb---3-----3--------------------------------------3---------------------


eb----------------------------------------------------------------------
Bb----------------------------------------------------------------------
Gb---0h2-0-----0--------------------------------------------------------
Db---------0h2---0---------------0h2------------------------------------
Ab-------------------------2h3------------------------------------------
Eb-----------------------3-----3----------------------------------------