20150422

THE LORD OF THE RINGS ROHAN THEME TAB (CLASSICAL GUITAR COVER BY JONAS LEFVERT)

Jonas Lefvert plays a classical guitar cover of Rohan Theme - The Lord of the Rings.
He is really on time !!! Standard tuning.
See the TAB under the video.



THE LORD OF THE RINGS ROHAN THEME TAB                                Download PDF

Part 1

e---0-------3-----------5-----------------------------------------------
B---1-------1-------------8-7-------------------------------------------
G---0-------------------5---7-------7-----------------------------------
D---2-----------------------7-------------------------------------------
A---3-----------------------5-------------------------------------------
E-----------------------------------------------------------------------


e---0-------3-----------2-----------------------------------------------
B---1-------1-----------3-----------------------------------------------
G---0-------------------2-----------------------------------------------
D---2-------------------0-----------------------------------------------
A---3-------------------------------------------------------------------
E-----------------------------------------------------------------------


e---0-------3-----------5-----------------------------------------------
B---1-------1-------------8-7-------------------------------------------
G---0-------------------5---7-------7-----------------------------------
D---2-----------------------7-------------------------------------------
A---3-----------------------5-------------------------------------------
E-----------------------------------------------------------------------


20150418

SAY CHANCE GRAVITY TAB (JOHN MAYER SONG)


Great acoustic cover of John Mayer's Gravity by Say Chance (Kelly, Maddie & Taylor)
Awesome guitar playing by Kelly Rosenthal. Standard tuning & CAPO on 3rd.
See the TAB under the video.



SAY CHANCE GRAVITY TAB                                                                    Download PDF

Intro

e-----------------------------------------------------------------------
B---3-----------3---------3-----3---------3-----3-----------------------
G---4-----------2h4-------4h5---5p4-------2h4---4p2---------------------
D---5---------------------5-----5---------------------5-----------------
A-----------------------------------------------------------------------
E---3---------3---------3---------------3-------------------------------


e-----------------------------------------------------------------------
B-----------------------------------------------------------------------
G---5---5-------5---5---5---5---5-------5---5---------------------------
D---5---5-------5---5h7-5h7-5---5-------5h7-5---5.--0-------------------
A---5h7-------7-5h7---------5h7-------7-----7---5.----------------------
E-----------------------------------------------------------------------


e---------------5/7---3------------------------------------------------
B---3---------------------3---3---------------3-3-----3----------------
G---4-----------5/7---4---2h4-2h4-------4-----5-4p2---2----------------
D---5-----------------------------------------------5------------------
A----------------------------------------------------------------------
E---3---------3---------3-------------------3--------------------------


20150412

THE NIGHTRUNNERS IDYLLE TAB (COVER BY GIORGIO ZIZZO)

Giorgio Zizzo plays Idylle by The Nightrunners.
Great guitar instrumental song.
See the TAB under the video.


THE NIGHTRUNNERS IDYLLE TAB                                                       Download PDF

Chords

  A      F#m      Bm      E       D       Dm      B       E7     F7
e-0-------2-------2-------0-------2-------1-------2---------------------
B-2-------2-------3-------0-------3-------3-------4-------5------6------
G-2-------2-------4-------1-------2-------2-------4-------7------8------
D-2-------4-------4-------2-------0-------0-------4-------6------7------
A-0-------4-------2-------2-----------------------2-------7------8------
E---------2---------------0---------------------------------------------



Part 1
                    A                                   F#m       Bm
e-----9-7---5-----------------------------9-7---5-----------------------
B-5-----------7---5-------------------5-----------7---5-7.--7~----------
G-------------------6---6~----------------------------------------------
D-----------------------------------------------------------------------
A-----------------------------------------------------------------------
E-----------------------------------------------------------------------

                      E                                 A    D    A
e-----10-9---7------------------------------9---7-9---7-5~--------------
B-7------------10---7-9.--9~--------------9-----------------------------
G-------------------------------------9---------------------------------
D-----------------------------------------------------------------------
A-----------------------------------------------------------------------
E-----------------------------------------------------------------------



20150406

ERIC CLAPTON TOP 10 LIVE LAYLA SOLOS TAB (SOLO #3)

Here we go ... the TOP 10 live Layla solos by sir Eric Clapton.
Solo #3 starts about 9:05 in the video.
See the TAB below.



ERIC CLAPTON TOP 10 LAYLA SOLOS TAB                                        Download PDF

Solo #3

e-----------------------------------------------------------------------
B----15~---15~---15~---15~---17-(18)-17~---15---------------------------
G---------------------------------------------17-14~-----\\\---///------
D-----------------------------------------------------------------------
A-----------------------------------------------------------------------
E-----------------------------------------------------------------------


e-----------------------------------------------------------------------
B----18(22)--------(18)-15.-15~-------15-18-15--18-15--18-15--18-15-----
G-----------------------------------17--------17-----17-----17-----17---
D-----------------------------------------------------------------------
A-----------------------------------------------------------------------
E-----------------------------------------------------------------------


e-----------------------------------------------------------------------
B-18-15--18-15--18-15--17-15--18-15--17-15--18-15--17-15--17(18)(17)----
G------17-----17-----17-----17-----17-----17-----17-----17--------------
D-----------------------------------------------------------------------
A-----------------------------------------------------------------------
E-----------------------------------------------------------------------



20150327

THE VIOLENTS ANACONDA TAB


Anaconda by The Violents from 1961. Great instrumental guitar song.
See the TAB under the video.



THE VIOLENTS ANACONDA TAB                                                            Download PDF


Part 1

                C                           Dm
e-------8-7-5-----------------------8-8-7-5----5------------------------
B---5-8-------8-5~--------------5-8---------6-----6---------------------
G-5---------------------------5----------------------7------------------
D-----------------------------------------------------------------------
A-----------------------------------------------------------------------
E-----------------------------------------------------------------------

               G7                                    C
e-----------------------7~----------7---7--8---7--5--3~-----------------
B---5-6--8--9--10-----8-8~----------8---8--10--8--6--5~-----------------
G-7---------------------------------------------------------------------
D-----------------------------------------------------------------------
A-----------------------------------------------------------------------
E-----------------------------------------------------------------------

                C                             F
e-------8-7-5-------------------------6-6-8-6-5-----8-5~----------------
B---5-8-------8-5~----------------5-8-----------------------------------
G-5-----------------------------5---------------------------------------
D-----------------------------------------------------------------------
A-----------------------------------------------------------------------
E-----------------------------------------------------------------------



20150318

MIKE POSS ROMANTIC GUITAR INSTRUMENTAL TAB

Mike Poss playing a great Romantic Guitar Instrumental song.
He is using a custom made Explorer guitar - made by Joe Weber.
See the TAB under the video.



MIKE POSS ROMANTIC GUITAR INSTRUMENTAL TAB                    Download PDF

Part 1

e-----------------------------------------------------------------------
B-----------------------------------------------------------------------
G------------14---------------9---------------4-/-6---------------------
D-------11----------------7---------------2-------------------7---6-----
A---9-------------9.--5-----------5.--0-------------------7-------------
E-----------------------------------------------------0-----------------


e-----------------------------------------------------------------------
B-----------------------------------------------------------------------
G------------14---------------9---------------4-/-6---------------------
D-------11----------------7---------------2-------------------4-/-6-----
A---9-------------9.--5-----------5.--0-------------------2-------------
E-----------------------------------------------------0-----------------


e-----------------------------------------------------------------------
B-----------------------------------------------------------------------
G------------14---------------9---------------4-/-6---------------------
D-------11----------------7---------------2-------------------7---6-----
A---9-------------9.--5-----------5.--0-------------------7-------------
E-----------------------------------------------------0-----------------


20150315

ROBERT JOHNSON 32 - 20 BLUES TAB (COVER BY KOKI NITOBE)

Koki Nitobe's guitar cover of 32 - 20 Blues (Robert Johnson)
Keith Richards also plays this version in some of his interviews.
See the TAB under the video.


ROBERT JOHNSON 32 - 20 BLUES TAB                                              Download PDF


e--/9-----------------------8---8-------7---7---------------------------
B--/8-----------------------7---7-------6---6---------------------------
G--/9-----------------------8---8-------7---7---------------------------
D-----------------------------------------------------------------------
A---0-----0-----0-----0-----0-----0-----0-----0-------------------------
E-----------------------------------------------------------------------

                    - all the bass notes palm muted -

e---5.----5.----5.----5.----5.------------------------------------------
B---5.----8.----7.----6.----5.------------------------------------------
G-------------------------------------7-----7---------------------------
D-------------------------------------6-----6---------------------------
A---0-----0-----0-----0-----0-----7-----7-----7-------------------------
E-----------------------------------------------------------------------


e--------/9-------------------------------------------------------------
B--------/8----------------------/8.----7---8.--------------------------
G--------/9----------------------/9.----8---9.--------------------------
D-----------------------------------------------------------------------
A---0-----0-----0-----0-----0-----0-----0-----0-------------------------
E-----------------------------------------------------------------------



20150308

PHIL MCGARRICK ELEANOR RIGBY TAB (HANK MARVIN VERSION)

Phil McGarrick plays an instrumental version of Eleanor Rigby (The Beatles)
This instrumental version was arranged originally by Hank Marvin.
See the TAB under the video.


PHIL MCGARRICK ELEANOR RIGBY TAB                                            Download PDF

Part 1

e-----------------------------------------------------------------------
B-8h10~---10~-------8h10~---10~-------13~-----12~---------8h10~---10~---
G-----------------------------------------------------------------------
D-----------------------------------------------------------------------
A-----------------------------------------------------------------------
E-----------------------------------------------------------------------



Part 2

e-----------------------------------------------------------------------
B------------------------5-8~---7-5-7---5h7p5---5~----------------------
G-5-7-7/9-5'---------5-7----------------------7------7-5-7~-------------
D-------------7~--------------------------------------------------------
A-----------------------------------------------------------------------
E-----------------------------------------------------------------------


e-----------------------------------------------------------------------
B-----5-6.---5----------------------------------------------------------
G-5-7---7.--------------------------------------------------------------
D-----------------------------------------------------------------------
A-----------------------------------------------------------------------
E-----------------------------------------------------------------------