20150222

HANSEL PETHIG THE BOXER TAB (FINGERSTYLE GUITAR COVER)

Hansel Pethig plays a brilliant fingerstyle guitar cover of The Boxer (Paul Simon).
He is using standard tuning with Capo on the 2nd fret.
See the TAB under the video.



HANSEL PETHIG THE BOXER TAB                                                      Download PDF


Part 1                     - CAPO on the 2nd -

e-----------------------------------------------------------------------
B-3p0---0-----0---------------------------------------------------------
G-----2---2-----2---0-----0-----0---------------------------------------
D-----------3-----3---3-----3-------------------------------------------
A-----------------------5-----5-----------------------------------------
E-----------------------------------------------------------------------


e-----------------------------------------------------------------------
B-----------0---------------0---------------0---------------0h1---------
G-------0-------0-------0-------0-------0---------------0---------------
D-----0-------0-------0-------0-------0-------0-------0-------0---------
A-----------------------------------------------------------------------
E-3-------3-------3-------3-------3-------3-------3-------3-------------


Part 2

e-----------0-----------------------------3---2---0-----0---2p0---------
B-3-----3-------3-----0-----0h1---3-------------------------------------
G-----------------------------------------------------------------------
D-----0-------0-------0-------0-------0-------0-------2-------2---------
A-----------------------------------------------------------------------
E-3-------3-------3-------3-------3-------2-------0-------0-------------


AKRON/FAMILY AWAKE & MOMENT TAB (INTRO)

There is a nice intro part in Awake & Moment by Akron/Family. (0:00-2:29)
It is played in Dropped D tuning but unless 1 note you can play it in standard tuning too.
See the TAB under the video.



AKRON/FAMILY AWAKE & MOMENT INTRO TAB                                Download PDF


e-----------------------------------------------------------------------
B-------5-------------------3-----------3-------------------3-----------
G-3---------3---------3-----------2---------2---------2-----------------
D-----5-------5-------5-------5-\-----3-------3-------3-------3---------
A-0-------0-------0-------0-------0-------0-------0-------0-------------
D-----------------------------------------------------------------------


e-----------------------------------------------------------------------
B-------2-------------------2---------------2---------------2-----------
G-0---------0-----2-------------2-----2---------------2-----------------
D-----2-------2-------2-------2-------2-------2-------2-------2---------
A-0-------0-------0---------------0---------------0---------------------
D-----------------------------------------------------------------------


e-----------------------------------------------------------------------
B-------5-------------------3-----------3-------------------3-----------
G-3---------3---------3-----------2---------2---------2-----------------
D-----5-------5-------5-------5-\-----3-------3-------3-------3---------
A-0-------0-------0-------0-------0-------0-------0-------0-------------
D-----------------------------------------------------------------------


20150215

ROGER PAULSSON VALLA BAY TAB


Great guitar tune by Roger Paulsson. The song is called Valla Bay.
Grab your Fender Stratocasters and turn up the reverb !
See the TAB under the video.


ROGER PAULSSON VALLA BAY TAB                                                     Download PDF

Part 1

  A                        F#m
e-10/12-12-12-10.--9----9--7-9--7-5-------------------------------------
B-12/14-14-14-12.--10---10-9-10-9-7-------------------------------------
G-----------------------------------------------------------------------
D-----------------------------------------------------------------------
A-----------------------------------------------------------------------
E-----------------------------------------------------------------------

  A                        F#m
e-10/12-12-12-10.--9----9--7-9--7-5-------------------------------------
B-12/14-14-14-12.--10---10-9-10-9-7-------------------------------------
G-----------------------------------------------------------------------
D-----------------------------------------------------------------------
A-----------------------------------------------------------------------
E-----------------------------------------------------------------------



Part 2

      A               D                B               E
e-----------------------------------------------------------------------
B-----------------------------------------------------------------------
G---------------2--------------------------------4----------------------
D-2---------2-------2-4----------2/4---------4-------4-6----------------
A---5-4------------------------------7-6--------------------------------
E-----------------------------------------------------------------------

20150208

MIKE PINTO TEMPTATION TAB (LIVE AT THE MOBOOGIE LOFT)

Mike Pinto plays Temptation acoustically live at the MoBoogie.
Cool intro solo with some reggae chords.
See the TAB under the video.


MIKE PINTO TEMPTATION TAB                                                             Download PDF

Intro

e-5-7-7-7-7.--7.--5-7-7-7--8-7.--5.--2-----------7-5--------------------
B-7-8-8-8-8.--8.--7-8-8-8-10-8.--7.--4---------------8-7-5-7-4.---------
G----------------------------------------------4------------------------
D-----------------------------------------------------------------------
A-----------------------------------------------------------------------
E-----------------------------------------------------------------------


e-5-7-7-7-7.--7.--5-7-7-7--8-7.--5.--2-----------2-2/3\2.--2---3.-------
B-7-8-8-8-8.--8.--7-8-8-8-10-8.--7.--4-----------4-4/5\4.--4---5.-------
G-----------------------------------------------------------------------
D-----------------------------------------------------------------------
A-----------------------------------------------------------------------
E-----------------------------------------------------------------------


e-5-7-7-7-7.--7.--5-7-7-7--8-7.--5.--2-----------7-5--------------------
B-7-8-8-8-8.--8.--7-8-8-8-10-8.--7.--4---------------8-7-5-7-4.---------
G----------------------------------------------4------------------------
D-----------------------------------------------------------------------
A-----------------------------------------------------------------------
E-----------------------------------------------------------------------


20150131

RADE SERBEDZIJA MENI SE DUSO OD TEBE NE RASTAJE TAB

Beautiful song from Croatia. Rade Serbedzija - Meni Se Duso Od Tebe Ne Rastaje.
Great solo parts and a nice chord progression with a single acoustic guitar.
See the TAB under the video.




RADE SERBEDZIJA MENI SE DUSO OD TEBE NE RASTAJE TAB                      PDF


Solo 1
  D               G                       D
e-----------------------------------------------------------------------
B-2/3---------3---5---3-----------2/3-----------------------------------
G--------------------------------------4--2--------------4---2----------
D----------------------------------------------------3/4---4------------
A-----------------------------------------------------------------------
E-----------------------------------------------------------------------

      G                                           D
e-----------------------------------------------------------------------
B-2/3-3---3--3---------5--5/7--7----------3--5--5/7--5--3---------------
G-----------------------------------------------------------------------
D-----------------------------------------------------------------------
A-----------------------------------------------------------------------
E-----------------------------------------------------------------------


e-----------------------------------------------------------------------
B-3--5--7---5h7p5--3----------------------------------------------------
G-----------------------------------------------------------------------
D-----------------------------------------------------------------------
A-----------------------------------------------------------------------
E-----------------------------------------------------------------------

20150125

JOHN 5 THE CASTLE TAB

John 5 - The Castle is a brilliant guitar song. Exciting guitar playing in a great tuning.
In the original record he uses Open Dsus4 tuning: that is D A D G A D.
(in this video he is tuned down with another half step)
See the TAB of the main parts under the video.



JOHN 5 THE CASTLE TAB                                                                       Download PDF


Intro                     - open Dsus4 tuning -

D---------------0-------------------------------0-----------------------
A-----0---5p0---------0---3p0---0-----0---2p0---------0---3p0---0-------
G-------------0---------------0---------------0---------------0---------
D-----------------------------------------------------------------------
A-0h5---5---------0h3---3---------0h2---2---------0h3---3---------------
D-----------------------------------------------------------------------


D---------------0-------------------------------0---------------0-------
A-----0---5p0---------0---3p0---0-----0---2p0---------8---8\7-----------
G-------------0---------------0---------------0---------------0---------
D-----------------------------------------------------------------------
A-0h5---5---------0h3---3---------0h2---2---------2/8---8---------------
D-----------------------------------------------------------------------


D---------------0-------------------------------0-----------------------
A-----0---5p0---------0---3p0---0-----0---2p0---------0---3p0---0-------
G-------------0---------------0---------------0---------------0---------
D-----------------------------------------------------------------------
A-0h5---5---------0h3---3---------0h2---2---------0h3---3---------------
D-----------------------------------------------------------------------


20150120

IGOR PRESNYAKOV THE GODFATHER THEME TAB (ACOUSTIC FINGERSTYLE GUITAR COVER)

Igor plays the Godfather theme again ...
Great acoustic fingerstyle guitar arrangement of the famous tune.
He is using half-step down tuning.
See the TAB under the video.


IGOR PRESNYAKOV THE GODFATHER THEME TAB                         Download PDF

Part 1

D#----------------------3---0---2---0-----------------------0-----<12>--
A#-0-/5-5/8-8\7-7p5-5-----------1---1---1---1/3---0-------0---0---<12>--
F#------------------------------2---2---2---2/4---0-----0-------0-<12>--
C#----------------------------------------------------2-----------------
G#----------------------------------------------------------------------
D#--------------0---------------0-----------------0---------------<12>--


D#------------------------3-0---2p0-0---------------------0---------0---
A#-0-/5-5/8-8\7-7p5-5-----------------------------------1---1------1----
F#--------------------------------------0-4-3---------2-------2---2-----
C#--------------------------------------------------2------------2------
G#----------------------------------------2-1---0---------------0-------
D#--------------0---------------3---------------------------------------


D#-----------------------0-----0---------------0-------0----------------
A#-------------7-------7---7---7---------------------0---0-----1--------
F#-2/5-5/8-8.--------5-------5-5---2/5-5/8-8-------0---------0----------
C#-----------------7---------------------------------------0------------
G#-------------0---------------0-------------------------------3--------
D#---------------------------------------------0------------------------


20150119

PEPE MARTINEZ FLAMENCO GUITAR TAB (FLAMENCO GUITAR OF PEPE MARTINEZ 5 OF 5)

'Flamenco guitar of Pepe Martinez 5 of 5' - says the original video title.
The guitar tab was written according to the video below and follows Pepe Martinez' live flamenco guitar playing note-for-note. He uses Dropped C# tuning with Capo on 2nd fret.
To make it easier for you the tab is in Dropped D tuning with capo on 1st fret.


PEPE MARTINEZ FLAMENCO GUITAR TAB (5 OF 5)                           Download PDF

Dropped D tuning - Capo on 1st

Part 1

e-5555-------4444-------5555--------------------------------------------
B----3----------3----------3--------------------------------------------
G----2----------2----------2--------------------------------------------
D----4----------4----------4--------------------------------------------
A----0----------0----------0--------------------------------------------
D----0----------0----------0--------------------------------------------


e-10101010---9999---10101010---9999---7777------------------------------
B-------7-------8---------7-------8------6------------------------------
G-------7-------9---------7-------9------7------------------------------
D-------7-------7---------7-------7------6------------------------------
A-------0-------0---------0-------0-------------------------------------
D-------0-------0---------0-------0-------------------------------------


e-5555---------3333-------0h2-2----0------------------------------------
B----3------------2-------------3-----2-3-0-2----0----------------------
G----2------------0----------------------------2---1-2~-----------------
D----4------------2-----------------------------------------------------
A----0------------0-----------------------------------------------------
D----0------------------------------------------------------------------