20150520

HANSEL PETHIG HALLELUJAH TAB (FINGERSTYLE COVER OF LEONARD COHEN'S SONG)

Hansel Pethig plays a nice fingerstyle guitar cover of Leonard Cohen's Hallelujah.
He is using standard tuning with CAPO on the 2nd.
See the TAB under the video.



HANSEL PETHIG HALLELUJAH TAB                                                     Download PDF


Part 1                       CAPO on the 2nd

e---------0-----0-----------0-------------------------------------------
B---0---3-----------------------3-0-----0-------------------------------
G---------3-----3-----------------0-----0-------------------------------
D---------------------------------2-----2-------------------------------
A-----------------------------------------------------------------------
E---------------------------------------------0-------------------------


e---------0-----0-----------0-------------------------------------------
B---0---3---------------0-------3-----0-----0-----0-----0---------------
G---------3-----3---------3---3-----0-----0-----0-----0-----------------
D---------------------2-----2-----2-----2-----2-------------------------
A-----------------------------------------------------------------------
E---------------------------------------------------0-------------------


e-----------------------------------------------------------------------
B-----------------------------------------------------------------------
G-------0-----0-----0-----0-----0-----0-----0-----0---------------------
D-----2-----2-----2-----2-----2-----2-----2-----2-----------------------
A---1-----1-----1-----1-----2-----2-----2-----2-------------------------
E-----------------------------------------------------------------------



20150515

MELVIN CHUNG SARINANDE TAB


Melvin Chung plays an instrumental cover of Sarinande with a Fender Stratocaster.
See the TAB under the video.



MELVIN CHUNG SARINANDE TAB                                                       Download PDF


Part 1             A

e----------------4-5-------------8-9-----------16-17--------------------
B-----------------------------------------------------------------------
G-----------------------------------------------------------------------
D-----------------------------------------------------------------------
A-----------------------------------------------------------------------
E-----------------------------------------------------------------------



Part 2
                 A               E                     A

e-----------------------------------------------------------------------
B-----------------------------------------------------------------------
G-------2---4-/6-6---------5-6-7-4---------------3-4-6-2----------------
D---2-------------------------------------------------------------------
A-----------------------------------------------------------------------
E-----------------------------------------------------------------------

                  A              E               A        A7

e-----------------------------------------------------------------------
B----------------------------7\--3-----2-3-----5-3-2--------------------
G---4-/6-6---7-/9-9-----------------------------------------------------
D-----------------------------------------------------------------------
A-----------------------------------------------------------------------
E-----------------------------------------------------------------------



20150507

SWORD ART ONLINE II ED 3 SHIRUSHI TAB (FINGERSTYLE COVER BY JASON SZETO)

Jason Szeto's fingerstyle acoustic guitar cover of Shirushi (Sword Art Online II ED 3)
Original video title: Sword Art Online II ED 3 (Shirushi) acoustic guitar fingerstyle solo.
He is using standard tuning with CAPO on 1st.
See the TAB under the video.


SHIRUSHI TAB                                                                                           Download PDF

Part 1

e-----------------------------------------------------------------------
B---3-------------------------------3-----------------------------------
G---0-----0-----1/2---------0---0h2-2-----2---0-------0-----------------
D---2---2-------0---------1---1---------0-----2----/4---4-2-0-----------
A---3-------------------------------2---------2-------------------------
E---------------------------------------------0-------------------------

    T
e-----------7---------------12-\----10----------------------------------
B-------10------0---10--------------10----------0-----------------------
G-----------------------------------0-------0h2-------------------------
D-------------------0-------------------------------0-------------------
A-----------------------------------------------------------------------
E---9-------------------------------8-----------------------------------


e-------------------10--------------------------------------------------
B-------------------10--------------------------------------------------
G---1/2-------------0---------------------------------------------------
D-----------------------------------------------------------------------
A-----------------------------------------------------------------------
E------------------------------------------------x---0------------------

20150501

THE RYDERS SWAY TAB (LIVE IN VERDEN 2014)


The Ryders play an instrumental version of Sway - live in Verden, 2014.
Brilliant sound with the good old Fender Stratocaster.
See the TAB of the lead guitar parts and the chords under the video.



THE RYDERS SWAY TAB                                                                          Download PDF


Part 1

e-----------------------------------------------------------------------
B-----------------------------------------------------------------------
G-10-10--9--9-7-7-6.----------------------------------------------------
D-12-12-10-10-8-8-7.----------------------------------------------------
A-----------------------------------------------------------------------
E-----------------------------------------------------------------------

              Gm    A         Gm    A         Dm
e-5-5-5-5-5-5-6---5-----------6---5-------5---5-------------------------
B-------------------8~--------------8~------8-----8-6~------------------
G-----------------------------------------------------------------------
D-----------------------------------------------------------------------
A-----------------------------------------------------------------------
E-----------------------------------------------------------------------

                Gm    A         Gm    A         Dm
e-------------------------------------------5---5-----------------------
B-6.----6---6---8.--6-5~----8-6-8.--6-5~----6-5-6---5h6p5---------------
G-----7---7---7-7.--7-6~--------7.--7-6~-----------------7~-------------
D-----------------------------------------------------------------------
A-----------------------------------------------------------------------
E-----------------------------------------------------------------------

20150422

THE LORD OF THE RINGS ROHAN THEME TAB (CLASSICAL GUITAR COVER BY JONAS LEFVERT)

Jonas Lefvert plays a classical guitar cover of Rohan Theme - The Lord of the Rings.
He is really on time !!! Standard tuning.
See the TAB under the video.



THE LORD OF THE RINGS ROHAN THEME TAB                                Download PDF

Part 1

e---0-------3-----------5-----------------------------------------------
B---1-------1-------------8-7-------------------------------------------
G---0-------------------5---7-------7-----------------------------------
D---2-----------------------7-------------------------------------------
A---3-----------------------5-------------------------------------------
E-----------------------------------------------------------------------


e---0-------3-----------2-----------------------------------------------
B---1-------1-----------3-----------------------------------------------
G---0-------------------2-----------------------------------------------
D---2-------------------0-----------------------------------------------
A---3-------------------------------------------------------------------
E-----------------------------------------------------------------------


e---0-------3-----------5-----------------------------------------------
B---1-------1-------------8-7-------------------------------------------
G---0-------------------5---7-------7-----------------------------------
D---2-----------------------7-------------------------------------------
A---3-----------------------5-------------------------------------------
E-----------------------------------------------------------------------


20150418

SAY CHANCE GRAVITY TAB (JOHN MAYER SONG)


Great acoustic cover of John Mayer's Gravity by Say Chance (Kelly, Maddie & Taylor)
Awesome guitar playing by Kelly Rosenthal. Standard tuning & CAPO on 3rd.
See the TAB under the video.



SAY CHANCE GRAVITY TAB                                                                    Download PDF

Intro

e-----------------------------------------------------------------------
B---3-----------3---------3-----3---------3-----3-----------------------
G---4-----------2h4-------4h5---5p4-------2h4---4p2---------------------
D---5---------------------5-----5---------------------5-----------------
A-----------------------------------------------------------------------
E---3---------3---------3---------------3-------------------------------


e-----------------------------------------------------------------------
B-----------------------------------------------------------------------
G---5---5-------5---5---5---5---5-------5---5---------------------------
D---5---5-------5---5h7-5h7-5---5-------5h7-5---5.--0-------------------
A---5h7-------7-5h7---------5h7-------7-----7---5.----------------------
E-----------------------------------------------------------------------


e---------------5/7---3------------------------------------------------
B---3---------------------3---3---------------3-3-----3----------------
G---4-----------5/7---4---2h4-2h4-------4-----5-4p2---2----------------
D---5-----------------------------------------------5------------------
A----------------------------------------------------------------------
E---3---------3---------3-------------------3--------------------------


20150412

THE NIGHTRUNNERS IDYLLE TAB (COVER BY GIORGIO ZIZZO)

Giorgio Zizzo plays Idylle by The Nightrunners.
Great guitar instrumental song.
See the TAB under the video.


THE NIGHTRUNNERS IDYLLE TAB                                                       Download PDF

Chords

  A      F#m      Bm      E       D       Dm      B       E7     F7
e-0-------2-------2-------0-------2-------1-------2---------------------
B-2-------2-------3-------0-------3-------3-------4-------5------6------
G-2-------2-------4-------1-------2-------2-------4-------7------8------
D-2-------4-------4-------2-------0-------0-------4-------6------7------
A-0-------4-------2-------2-----------------------2-------7------8------
E---------2---------------0---------------------------------------------



Part 1
                    A                                   F#m       Bm
e-----9-7---5-----------------------------9-7---5-----------------------
B-5-----------7---5-------------------5-----------7---5-7.--7~----------
G-------------------6---6~----------------------------------------------
D-----------------------------------------------------------------------
A-----------------------------------------------------------------------
E-----------------------------------------------------------------------

                      E                                 A    D    A
e-----10-9---7------------------------------9---7-9---7-5~--------------
B-7------------10---7-9.--9~--------------9-----------------------------
G-------------------------------------9---------------------------------
D-----------------------------------------------------------------------
A-----------------------------------------------------------------------
E-----------------------------------------------------------------------



20150406

ERIC CLAPTON TOP 10 LIVE LAYLA SOLOS TAB (SOLO #3)

Here we go ... the TOP 10 live Layla solos by sir Eric Clapton.
Solo #3 starts about 9:05 in the video.
See the TAB below.



ERIC CLAPTON TOP 10 LAYLA SOLOS TAB                                        Download PDF

Solo #3

e-----------------------------------------------------------------------
B----15~---15~---15~---15~---17-(18)-17~---15---------------------------
G---------------------------------------------17-14~-----\\\---///------
D-----------------------------------------------------------------------
A-----------------------------------------------------------------------
E-----------------------------------------------------------------------


e-----------------------------------------------------------------------
B----18(22)--------(18)-15.-15~-------15-18-15--18-15--18-15--18-15-----
G-----------------------------------17--------17-----17-----17-----17---
D-----------------------------------------------------------------------
A-----------------------------------------------------------------------
E-----------------------------------------------------------------------


e-----------------------------------------------------------------------
B-18-15--18-15--18-15--17-15--18-15--17-15--18-15--17-15--17(18)(17)----
G------17-----17-----17-----17-----17-----17-----17-----17--------------
D-----------------------------------------------------------------------
A-----------------------------------------------------------------------
E-----------------------------------------------------------------------