20140914

NICKEL CREEK 21ST OF MAY TAB


There is a nice country guitar intro played in 21st of May by Nickel Creek.
The extreme part goes until 0:42. Capo on the 3rd fret, standard tuning.
See the TAB under the video.



NICKEL CREEK 21ST OF MAY TAB                                                                 Print PDF


e-3/5-3-----------------------------------------------------------------
B-------4\3-------------------------------------------------------------
G-----------------------------------------------------------------------
D-----------------------------------------------------------------------
A-----------------------------------------------------------------------
E-----------------------------------------------------------------------


e-----------------------------------------------------------------------
B-1-----1---------------------------------------0-1-------------1-------
G---2-0---2-0-----------------------------0-1-2---------------0---------
D-------------2-1-0-----------------0-1-2-----------------0h2-----------
A---------------------------0-1-2-3-------------------------------------
E-------------------0-1-2-3---------------------------------------------


e-------0-------0-------------------------------------------------------
B-----1-------1---------0-------0-----1---------1-------1-----1---------
G-0h2-----2p0---------0-------0-------0-------0-------0-------0---------
D-----------------0h2-----1p0---------2-----2-------2-----0h2-----------
A---------------------------------3---------------3---------------------
E-----------------------------------------3-----------------------------

20140908

JULIETTE VALDURIEZ LOST PARADISE TAB

Lost Paradise played by Juliette Valduriez.
Incredible lead guitar stuff that will definitely kill you at 0:35.
... so just don't mess with this blondie ...
See the TAB under the video.


JULIETTE VALDURIEZ LOST PARADISE TAB                                             Print PDF

Clean part

e---------------------------------------------------0-----0---0-0-------
B-------------------------5---5-0---------3---------2-----2---2-2-------
G---------0---------------5---5-0-----0-0---0-2-----2-2---2---2-2-------
D-------4-----------------5---5-0---4---------2-------2---2---2-2-------
A-----7-------3-------3---3---3---5-----------0-------0---0---0-0-------
E-0---------------------------------------------------------------------


e---------------------------------------------------0-----0---0-0-------
B-------------------------5---5-0---------3---------2-----2---2-2-------
G---------0---------------5---5-0-----0-----0-2-----2-2---2---2-2-------
D-------4-----------------5---5-0---4---4-----2-------2---2---2-2-------
A-----7-------3-------3---3---3---5-----------0-------0---0---0-0-------
E-0---------------------------------------------------------------------


e---------------------------------------------------0-----0---0-0-------
B-------------------------5---5-0---------3---------2-----2---2-2-------
G---------0---------------5---5-0-----0-----0-2-----2-2---2---2-2-------
D-------4-----------------5---5-0---4---4-----2-------2---2---2-2-------
A-----7-------3-------3---3---3---5-----------0-------0---0---0-0-------
E-0---------------------------------------------------------------------

20140831

MINAMI SPARKING SLASH TAB (COVER BY STEINBERCO)


Time to start rocking now ...
Sparking Slash guitar cover played by Steinberco.
See TAB of the lead part under the video.



MINAMI SPARKING SLASH TAB                                                                    Print PDF

Part 1

e-------------------------------------2---------------/2----------------
B-2----------------------------2------2-2----------------5-2------------
G-4(6)-------------------------4(6)-----4(6)-----------------5-4-2~-----
D-----------------------------------------------------------------------
A-----------------------------------------------------------------------
E-----------------------------------------------------------------------
                                                         x x x x

e-----------------------------------------------------------------------
B--------------------------------------------------2-4---4(6)---4-2-----
G-----4(6)---4(6)(4)p2-4-2~--------------------2-4------------------6~--
D-4--------------------------4---4~--------2-4--------------------------
A----------------------------------------4------------------------------
E-----------------------------------------------------------------------
                                           x x x x x

e-----------------------------------------------------------------------
B-12(14)------------12(14)---12-10-12-10-\------------------------------
G-----------------------------------------------------------------------
D-----------------------------------------------------------------------
A-----------------------------------------------------------------------
E-----------------------------------------------------------------------

20140828

BENISE SANTA BARBARA TAB


Benise - Santa Barbara - cool spanish guitar music.
See the TAB under the video.
www.benise.com


BENISE SANTA BARBARA TAB                                                                    Print PDF

 Verse 1
 
  F#m                Bm
e-----------------------------------------------------------------------
B-----------------------------------------------------------------------
G-----------------------------------------------------------------------
D-----------------------------------------------------------------------
A-----------------------------------------------------------------------
E-----------------------------------------------------------------------

              E                                 A
e-----------------------------------------------------------------------
B-----------------------------------------------------------------------
G-----1-2-4---4/6-------------7---6.--4h6p4---2-2-----------------------
D-2/4-------------------------------------------------------------------
A-----------------------------------------------------------------------
E-----------------------------------------------------------------------

  E/G#                    F#m                 Bm
e-----------------------------------------------------------------------
B-3/5-3-3-----2---3-2h3p2-----------------------------------------------
G---------------------------4-2-----------------2---4---4/6-4-----------
D-----------------------------------------2---4-------------------------
A-------------------------------------2/4-------------------------------
E-----------------------------------------------------------------------

20140818

SHADOWY MEN ON A SHADOWY PLANET EGYPT TEXAS TAB

 ... and the original Fender Stratocaster sound in Egypt Texas played by Brian Conelly.
The name of the band is Shadowy Men on a Shadowy Planet. The key is A minor ...
See the TAB under the video.


SHADOWY MEN ON A SHADOWY PLANET EGYPT TEXAS TAB               Print PDF


Part 1

e-----------------------------------------------------------------------
B-----------------------------------------------------------------------
G-----------------------------------------------------------------------
D-----------------------------------------------------------------------
A-0---2h3-3---3---3-2~--------------0-3-2---3---3/5.---0-3-2------------
E--------------------------------------------------------------3--------


e-----------------------------------------------------------------------
B-----------------------------------------------------------------------
G-----------------------------------------------------------------------
D-----2-2-2-2-2-2-2-1~--------------0-----------0-0-2-2-3-3-2-2---------
A-0---3-3-3-3-3-3-3-2~----------------3-2---3---------------------------
E-----------------------------------------------------------------------


e------------------------------------------5---5-5-4-5-4----------------
B----------5---5-5-4-5-4~------4-4-----6-----------------6-5-6-5--------
G------5---------------------------7-7---7-----------------------5------
D-/7-----7--------------------------------------------------------------
A-----------------------------------------------------------------------
E-----------------------------------------------------------------------

20140817

PACHELBEL CANON IN D TAB (CLASSICAL GUITAR COVER BY MICHAEL LUCARELLI)

Michael Lucarelli performs Pachelbel's "Canon in D" for classical guitar.
In the video we can't see what he is playing but just see the TAB below.
www.michaellucarelli.com


MICHAEL LUCARELLI CANON IN D TAB                                                       Print PDF


Part 1

e-10-----------10---9------------9---7-----------7---5-------2---5------
B----------7----------------10---------------7-----------2--------------
G------7----------------9----------------7------------------------------
D-0--------------------------------------------------4------------------
A-------------------0---------------------------------------------------
E------------------------------------7----------------------------------


e-3-----------3---2-----------2---3-------------------------------------
B---------0---------------3---------------0---3---2-----------2---------
G-----0---------------2---------------0-------------------2-------------
D-----------------0-----------------------------------2-----------------
A-------------------------------------------------0---------------------
E-3-------------------------------3-------------------------------------


e-2-----------2---0-----------0-----------------------------------------
B---------3---------------2-------3-----------3---2-----------2---------
G-----2---------------2-------------------4---------------2-------------
D-0-----------------------------------4---------------4-----------------
A-----------------0---------------2-------------------------------------
E-------------------------------------------------2---------------------

20140814

ZORBA THE GREEK TAB (FINGERSTYLE COVER BY CACHO TIRAO)

Zorba the Greek (Zorba el Griego) played by the great Cacho Tirao.
Awesome fingerstyle version from a live TV show.
See the TAB under the video.


ALBERTO ABELLA ZORBA THE GREEK TAB                                              Print PDF


Part 1

e---------5.--------------5.--------------5.--------------5.------------
B---------5.--------------5.--------------5.--------------5.------------
G---------6.--------------6.--------------6.--------------6.------------
D-----------------------------------------------------------------------
A-0.------------------------------0.------------------------------------
E-----------------0.------------------------------0.--------------------


e-----------------------------------------------------------------------
B-4/5~------5.--------------5-----4/5~------5.--------------5-----------
G-----------6.--------------6---------------6.--------------6-----------
D-----------7.--------------7---------------7.--------------7-----------
A-0.------------------------------0.------------------------------------
E-------------------0.------------------------------0.------------------


e-----------------------------------------------------------------------
B-7p5-4-4/5~------5.--------------5-----4/5~------5.---------------5.---
G-----------------6.--------------6---------------6.---------------6.---
D-----------------7.--------------7---------------7.---------------7.---
A-------0.------------------------------0.------------------------------
E-------------------------0.-------------------------------0.-----------

20140810

BC RICH AVENGE SON OF BEAST ELECTRIC GUITAR TAB (EMAN ON SI EREHT BY EDDIE)

"Here's Eddie I from 'Hands Like Glass' shredding on a BC Rich Avenge Son of Beast electric guitar."  The name of the song is Eman On Si Ereht (in dropped C# tuning !!! )
See the TAB under the video ...


BC RICH AVENGE SON OF BEAST ELECTRIC GUITAR TAB                      Print PDF


D#----------------------------------------------------------------------
A#----------------------------------------------------------------------
F#----------------------------------------------------------------------
C#-0--------------------------------------------------------------------
G#-0--------------------------------------------------------------------
C#-0------\\\\---////---------------------------------------------------


D#----------------------------------------------------------------------
A#----------------------------------------------------------------------
F#----------------------------------------------------------------------
C#-8---8-8---8-8-8---8-8-8---8-7-7-5---5-5---5-5-5---5-5-5---5-3-3-3----
G#-8---8-8---8-8-8---8-8-8---8-7-7-5---5-5---5-5-5---5-5-5---5-3-3-3----
C#-8---8-8---8-8-8---8-8-8---8-7-7-5---5-5---5-5-5---5-5-5---5-3-3-3----


D#----------------------------------------------------------------------
A#----------------------------------------------------------------------
F#----------------------------------------------------------------------
C#---------------------------3---3--------------------------------------
G#---------------------------3---3--------------------------------------
C#-0-0-000-0-0-000-0-0-000-0-3-0-3---0-0-0-0-000-0-000-0-0-000-000------
   x x xxx x x xxx x x xxx x   x     x x x x xxx x xxx x x xxx xxx