20150125

JOHN 5 THE CASTLE TAB

John 5 - The Castle is a brilliant guitar song. Exciting guitar playing in a great tuning.
In the original record he uses Open Dsus4 tuning: that is D A D G A D.
(in this video he is tuned down with another half step)
See the TAB of the main parts under the video.



JOHN 5 THE CASTLE TAB                                                                       Download PDF


Intro                     - open Dsus4 tuning -

D---------------0-------------------------------0-----------------------
A-----0---5p0---------0---3p0---0-----0---2p0---------0---3p0---0-------
G-------------0---------------0---------------0---------------0---------
D-----------------------------------------------------------------------
A-0h5---5---------0h3---3---------0h2---2---------0h3---3---------------
D-----------------------------------------------------------------------


D---------------0-------------------------------0---------------0-------
A-----0---5p0---------0---3p0---0-----0---2p0---------8---8\7-----------
G-------------0---------------0---------------0---------------0---------
D-----------------------------------------------------------------------
A-0h5---5---------0h3---3---------0h2---2---------2/8---8---------------
D-----------------------------------------------------------------------


D---------------0-------------------------------0-----------------------
A-----0---5p0---------0---3p0---0-----0---2p0---------0---3p0---0-------
G-------------0---------------0---------------0---------------0---------
D-----------------------------------------------------------------------
A-0h5---5---------0h3---3---------0h2---2---------0h3---3---------------
D-----------------------------------------------------------------------


20150120

IGOR PRESNYAKOV THE GODFATHER THEME TAB (ACOUSTIC FINGERSTYLE GUITAR COVER)

Igor plays the Godfather theme again ...
Great acoustic fingerstyle guitar arrangement of the famous tune.
He is using half-step down tuning.
See the TAB under the video.


IGOR PRESNYAKOV THE GODFATHER THEME TAB                         Download PDF

Part 1

D#----------------------3---0---2---0-----------------------0-----<12>--
A#-0-/5-5/8-8\7-7p5-5-----------1---1---1---1/3---0-------0---0---<12>--
F#------------------------------2---2---2---2/4---0-----0-------0-<12>--
C#----------------------------------------------------2-----------------
G#----------------------------------------------------------------------
D#--------------0---------------0-----------------0---------------<12>--


D#------------------------3-0---2p0-0---------------------0---------0---
A#-0-/5-5/8-8\7-7p5-5-----------------------------------1---1------1----
F#--------------------------------------0-4-3---------2-------2---2-----
C#--------------------------------------------------2------------2------
G#----------------------------------------2-1---0---------------0-------
D#--------------0---------------3---------------------------------------


D#-----------------------0-----0---------------0-------0----------------
A#-------------7-------7---7---7---------------------0---0-----1--------
F#-2/5-5/8-8.--------5-------5-5---2/5-5/8-8-------0---------0----------
C#-----------------7---------------------------------------0------------
G#-------------0---------------0-------------------------------3--------
D#---------------------------------------------0------------------------


20150119

PEPE MARTINEZ FLAMENCO GUITAR TAB (FLAMENCO GUITAR OF PEPE MARTINEZ 5 OF 5)

'Flamenco guitar of Pepe Martinez 5 of 5' - says the original video title.
The guitar tab was written according to the video below and follows Pepe Martinez' live flamenco guitar playing note-for-note. He uses Dropped C# tuning with Capo on 2nd fret.
To make it easier for you the tab is in Dropped D tuning with capo on 1st fret.


PEPE MARTINEZ FLAMENCO GUITAR TAB (5 OF 5)                           Download PDF

Dropped D tuning - Capo on 1st

Part 1

e-5555-------4444-------5555--------------------------------------------
B----3----------3----------3--------------------------------------------
G----2----------2----------2--------------------------------------------
D----4----------4----------4--------------------------------------------
A----0----------0----------0--------------------------------------------
D----0----------0----------0--------------------------------------------


e-10101010---9999---10101010---9999---7777------------------------------
B-------7-------8---------7-------8------6------------------------------
G-------7-------9---------7-------9------7------------------------------
D-------7-------7---------7-------7------6------------------------------
A-------0-------0---------0-------0-------------------------------------
D-------0-------0---------0-------0-------------------------------------


e-5555---------3333-------0h2-2----0------------------------------------
B----3------------2-------------3-----2-3-0-2----0----------------------
G----2------------0----------------------------2---1-2~-----------------
D----4------------2-----------------------------------------------------
A----0------------0-----------------------------------------------------
D----0------------------------------------------------------------------

20150111

THE RYDERS SECRET LOVE TAB (LIVE IN TILBURG 2010)


The Ryders play a brilliant instrumental version of Secret Love live in Tilburg.
The lead guitarist is called Kurt Fröberg.
See the TAB of the lead guitar line and the chords here.



THE RYDERS SECRET LOVE TAB                                                         Download PDF

Part 1

  A
e-----------------------------------------------------------------------
B-----------------------------------------------------------------------
G-----------------------------------------------------------------------
D-----2-2-----2-2-----2-2-----2-2-----2-2-----2-2-----2-2---------------
A-0---------------0---------------0---------------0---------------------
E---------0---------------0---------------0---------------0-------------
  x   x x x   x x x   x x x   x x x   x x x   x x x   x x x

  A
e-----------------------------------------------------------------------
B-----------------------------------------------------------------------
G-----------------------------------------------------------------------
D-1h2---1/2-----------0h2p0---------------------------------------------
A---------------------------4---0---2---4-------------------------------
E-------------------------------------------0---------------------------

  A                                   Bm     E
e-----------------------------------------------------------------------
B-----------------------------------------------------------------------
G-----------------------------------------------------------------------
D-------------------------0---2---4-------------------------------------
A-----0-----------2---4---------------2---------------------------------
E-0---------------------------------------------------------------------

20150101

SCARBOROUGH FAIR TAB (FINGERSTYLE GUITAR COVER BY HANSEL PETHIG)

Hansel Pethig plays a nice fingerstyle guitar cover of Scarborough Fair.
He uses standard tuning with Capo on the 4th fret.
See the TAB under the video.


HANSEL PETHIG SCARBOROUGH FAIR TAB                                      Download PDF

Part 1

e-----8---7---7---5\3-3-------5---3---3\1-1---0-------------------------
B---5---5-----------------------0---------------------------------------
G-----------7---7---5---5---5-------4---2---2---2-----------------------
D-----------------------------------------------------------------------
A-0-----------0-----------0-----------0---------------------------------
E-----------------------------------------------------------------------


e-----------------------------------------------------------------------
B-------0-----------0-------1-0-1-0-----1-0-1-0-------------------------
G-----2---2-------2---2-----2-0-2-0-----2-0-2-0-------------------------
D---0-------0---0-------0-3---------0-----------------------------------
A-----------------------------------------------------------------------
E-1-----------3-----------------------3---------------------------------


Part 2

e-------------0---------------------------0-----------------------------
B---------0-----------0---0-----0h1p0-----------3-----------------------
G-------5---5-------5---0-------------0-------0---0---------------------
D-----7-----------7-----------0-------------4---------------------------
A-0-----------0-------------------------0-------------------------------
E-------------------------3---------------------------------------------

20141225

SNOW SORA NO YURIKAGO TAB (GUITAR COVER BY ANIMELODIES1)

Animelodies1 plays a great fingerstyle guitar cover of Snow - Sora no Yurikago.
He uses Dropped D tuning with Capo on the 2nd fret.
A '0' in the tablature means the open string.
See the TAB under the video.


SNOW SORA NO YURIKAGO TAB                                                          Download PDF

Part 1

e-----12---10---10---9~----------------9---7--------9~------------------
B---------------10-----------------------------10-----------------------
G-9-------------------------------------------------8~------------------
D-----------------------------------------------------------------------
A-----------------------------------------------------------------------
D-----------------------------------------------------------------------


e-----9---10-------7---5~------------------5---7---9---0----------------
B-6------------9---7-------------------7---------------8~---------------
G---------6-------------------------------------------------------------
D-----------------------------------------------------------------------
A-----------------------------------------------------------------------
D-----------------------------------------------------------------------


e---------5----------------------------------------------12-------------
B-----8-------8---7~----------------7---9-----10----12------------------
G-6---------------7~--------------------9-------------------------------
D-7------------------------------------------------------11-------------
A-----------------------------------------------------------------------
D-----------------------------------------------------------------------


20141221

KING CHARLES IVORY ROAD TAB (ROOFTOP SESSIONS)

King Charles plays Ivory Road on the Rooftop Sessions.
Special guy with a special guitar!
He tuned down the low E string to a C and put the Capo on the 7th fret.
See the intro part (0:00 - 0:43) TAB under the video.



KING CHARLES IVORY ROAD TAB                                                        Download PDF

Capo on 7th !!! (CADGBe tunig)

e-----------------------------------------------------------------------
B-----------------------------------------------------------------------
G-------------5-----------------------2h5p2-----------------------------
D-----2---5-------5---2-------2---5---------5---2-----------------------
A-3-----------------------3---------------------------------------------
C-----------------------------------------------------------------------


e-----------------------------------------------------------------------
B-----------------------------------------------------------------------
G---------------7-----------------------7-------------------------------
D-------6-------------6---------6-----------6---------------------------
A-3/7-------7-----------7---7-------7-----------7-----------------------
C-----------------------------------------------------------------------


e-----------------------------------------------------------------------
B-----------------------------------------------------------------------
G---------------9.--7-------------------9---10--------------------------
D-------7---------------7-------7---------------------------------------
A-7/8-------8---------------8-------8------------8-\--------------------
C-----------------------------------------------------------------------

20141214

THE BEAUMONT RAG TAB (FLATPICKING COVER BY SHANE BUMGARNER)

The original video title says: Flatpicking The Beaumont Rag.
Great song played with two acoustic guitars.
See the TAB under the video.


THE BEAUMONT RAG FLATPICKING TAB                                           Download PDF

Intro

e-----------------------------0-----------------------------------------
B---------------------1---3---------------------------------------------
G-----------------------------------------------------------------------
D-----------------------------------------------------------------------
A-2h3-3-3-3---3-3-3-----------------------------------------------------
E-----------------------------------------------------------------------


Part 1

  G                               C
e-1-3-1-0---0-----------------------0---0-------------------------------
B---------3---3-1---0---0---------4---4---1-----1-----------------------
G-----------------3---3---0---0-2-----------2-0---2-0---------0---------
D-----------------------------------------------------2-0---------------
A---------------------------------------------------------3-------------
E-----------------------------------------------------------------------

  G                               C
e-----------------------------------------------------------------------
B-----------------------------------------------------------------------
G-------0---2-0---------0---2-0---------------0-----------0---0---------
D-0-2-3-----------0-2-3-----------------0-2-3-----------0---------------
A---------------------------------3-2-3-----------3-2-3-----------------
E-----------------------------------------------------------------------