20140724

BRUSHY ONE STRING CHICKEN IN THE CORN TAB

Brushy One String is a crazy jamaican with a pure E string on his guitar.
He sings Chicken in the corn with his friends.
See the TAB under the video.



BRUSHY ONE STRING CHICKEN IN THE CORN TAB                                Print PDF

Intro

              x     x x   x   x               x     x     x   x
E-0---5---------------------------0---3---------------------------------



              x     x x   x   x               x     x     x   x
E-0---5---------------------------0---3---------------------------------



              x     x     x   x               x     x     x   x
E-0---5---------------------------0---3---------------------------------



              x     x     x   x               x     x     x   x
E-0---5---------------------------0---3---------------------------------



              x     x     x   x               x     x     x   x
E-0---5---------------------------0---3---------------------------------



              x     x     x   x           x   x x   x x   x   x   x
E-0---5---------------------------0---3---------------------------------

20140720

OF MONSTERS AND MEN DIRTY PAWS TAB


There is a nice guitar intro part in Dirty Paws by Of Monsters And Men.
Basically there are a few popular chords with a CAPO on the 3rd.
See the TAB under the video.



OF MONSTERS AND MEN DIRTY PAWS TAB                                               Print PDF

Intro

e-----------------------------------------------------------------------
B-----------------------------------------------------------------------
G-------------2---------------0---------------0---------------0---------
D-----2---------------2---------------0h2-------------2-----------------
A-0-------0-------0-------0-------3-------3-------3-------3-------------
E-----------------------------------------------------------------------


e-----------------------------------------------------------------------
B---------------------------------------------1---------------1---------
G-------------0---------------0-------0h2-------------2-----------------
D-----2---------------2-----------3-------3-------3-------3-------------
A-3-------3-------3-------3---------------------------------------------
E-----------------------------------------------------------------------


e-----------------------------------------------------------------------
B-----------------------------------------------------------------------
G-------------2---------------0---------------0---------------0---------
D-----2---------------2---------------0h2-------------2-----------------
A-0-------0-------0-------0-------3-------3-------3-------3-------------
E-----------------------------------------------------------------------

20140718

ALICE IN CHAINS DON'T FOLLOW TAB (FINGERSTYLE COVER BY PHIL JAKES)

Phil Jakes plays a brilliant fingerstyle guitar cover of Don't Follow by Alice Chains.
He is using Dropped C# tuning (that is C# G# C# F# A# D#) 
See the TAB under the video.



ALICE IN CHAINS DON'T FOLLOW TAB                                                       Print PDF

Part 1

D#---------2---------------2---------------0----------------------------
A#---3-------3-------3-------3-------3-------3-----3p2-----2------------
F#-----2---------2-----2---------2-----0---------0-----2-----2---2------
C#-------0-----0---------0-----0---------0-----0---------2-----2--------
G#-------------------------------------------------0--------------------
C#-0---------------4---------------5------------------------------------


D#---------2---------------2---------------0----------------------------
A#---3-------3-------3-------3-------3-------3-----3p2-----2------------
F#-----2---------2-----2---------2-----0---------0-----2-----2---2------
C#-------0-----0---------0-----0---------0-----0---------2-----2--------
G#-------------------------------------------------0--------------------
C#-0---------------4---------------5------------------------------------


D#---------2---------------2---------------0----------------------------
A#-----3-----3-------3-------------------3---3--------------------------
F#-2-------------2-----2-----4p2---2p0-----------0----------------------
C#-------0-----0---------0-------0-----0-------0---5\4-4\2-2-2/4--------
G#-------------------------------------------------0--------------------
C#-0---------------4---------------5------------------------------------

20140715

MR PROBZ WAVES TAB


Rory de Kievit plays a nice guitar lick in the song called Mr Probz - Waves.
There are many remix versions of the song but the main melody remains the same.
See the TAB under the video.



MR PROBZ WAVES TAB

e-----------------------------------------------------------------------
B----------9------------------------------------------------------------
G----------------------8--------------------8---------------------------
D-----10-----------8-------------------------------------11-------------
A-8------------6-----------------------10-----------11------------------
E----------------------------------8------------9-----------------------




MAKE A GUITAR-TAB REQUEST HERE

MORE ON GUITAR TABS A-Z
           

20140713

SLASH & MYLES KENNEDY SWEET CHILD O' MINE TAB (ACOUSTIC, LIVE, MAX SESSIONS)

Slash and Myles Kennedy play Sweet Child O' Mine on the Australian Max Sessions.
Two acoustic guitars in half step down tuning and Myles' voice.
See the TAB of Slash's playing under the video.


SLASH & MYLES KENNEDY SWEET CHILD O' MINE TAB         Printable tab here

Part 1

D#-------------15----14----------------15----14-------------------------
A#----15----------------------15----------------------------------------
F#-------14-12----14----14-------14-12----14----14----------------------
C#-12----------------------12-------------------------------------------
G#----------------------------------------------------------------------
D#----------------------------------------------------------------------


D#-------------15----14----------------15----14-------------------------
A#----15----------------------15----------------------------------------
F#-------14-12----14----14-------14-12----14----14----------------------
C#-14----------------------14-------------------------------------------
G#----------------------------------------------------------------------
D#----------------------------------------------------------------------


D#-------------15----14----------------15----14-------------------------
A#----15----------------------15----------------------------------------
F#-12----14-12----14----14-12----14-12----14----14----------------------
C#----------------------------------------------------------------------
G#----------------------------------------------------------------------
D#----------------------------------------------------------------------

20140710

JAMES LAST THE LONELY SHEPHERD TAB (BURNS ERNST COVER)

Burns Ernst plays a nice instrumental guitar cover of The Lonely Shepherd tune
(written by James Last) there is a 2nd guitar line by 3:00.
See the TAB under the video.


THE LONELY SHEPHERD TAB                                                        Printable tab here

CONTACT US to purchase the GUITAR PRO TAB (4$)

Part 1

e-----------------------------9---14-12-14------------------------------
B-----------9---9---10---10---------------------------------------------
G-11---11---------------------------------------------------------------
D-----------------------------------------------------------------------
A-----------------------------------------------------------------------
E-----------------------------------------------------------------------


e-12-10-12--------------------------------------------------------------
B------------------------12-(14)---(14)---------------------------------
G-----------------------------------------------------------------------
D-----------------------------------------------------------------------
A-----------------------------------------------------------------------
E-----------------------------------------------------------------------


e-----------------------------9---14-12-14------------------------------
B-----------9---9---10---10---------------------------------------------
G-11---11---------------------------------------------------------------
D-----------------------------------------------------------------------
A-----------------------------------------------------------------------
E-----------------------------------------------------------------------

20140707

LENNY KRAVITZ IT AIN'T OVER TILL IT'S OVER TAB (SOLO COVER BY BRYAN CHANG)

Bryan Chang shows from very close how to play the solo part of this Lenny Kravitz song. There are also a few nice chords in the song.
See the TAB under the video.


LENNY KRAVITZ IT AIN'T OVER TILL IT'S OVER TAB                  Printable tab here

Solo

  A            B
e---------------------------16.-----------------------------------------
B-19(21)-------19.--19-19.-------19~---\\\------------------------------
G-----------------------------------------------------------------------
D-----------------------------------------------------------------------
A-----------------------------------------------------------------------
E-----------------------------------------------------------------------

           A                                  B
e-----------------------------------------------------------------------
B-------17~-----------------------------------------------14.-----------
G-16-18--------18-\\\-----------16(18)-------16.--16-16.-------16~---\\\
D-----------------------------------------------------------------------
A-----------------------------------------------------------------------
E-----------------------------------------------------------------------

               A
e-----------------------------------------------------------------------
B--------------9.--9-9.-------10(12)-----10.--9-------------------------
G-11(13)-----------------11.--------------------11.---------------------
D-----------------------------------------------------------------------
A-----------------------------------------------------------------------
E-----------------------------------------------------------------------

20140702

ALAN MENKEN ALADDIN A WHOLE NEW WORLD TAB (INSTRUMENTAL GUITAR COVER BY CHAMACOJESUS)

There is a masterpiece played by Chamacojesus with a single classical guitar.
The song is Alan Menken's Aladdin A Whole New World. Chamacojesus has already shared a tablature in his blog but it did not cover his awesome playing note-for-note.
See the TAB - as actually played here - under the video.


CHAMACOJESUS ALADDIN A WHOLE NEW WORLD TAB        Printable tab here

CONTACT US to purchase the GUITAR PRO TAB (5$)

Part 1    Dropped D tuning

e-----------------------------------------------------------------------
B-7-----------7---------------8-------------------10------8-------------
G-6-----------6---------------7-----------------------------------------
D-7-------7-----------7.------8---------------7-------7-------7---------
A-----------------------------0-----------------------------------------
D-0---------------0-----------------------------------------------------


e-----------------------------------------------------------------------
B-7-----------7---------------8-------------------10------8-------------
G-6-----------6---------------7-----------------------------------------
D-7-------7-----------7.------8---------------7-------7-------7---------
A-----------------------------0-----------------------------------------
D-0---------------0-----------------------------------------------------


Part 2

e-----------------------------------------------------------------------
B-7-----------7h8-----7-------------------7-------10------8-------------
G---------9---------------7-p-6-------6-----------7-----------7---------
D-----7---------------------------7-----------7---8---8-----------------
A-------------------------0-----------------------0---------------------
D-0---------------0---------------0-------------------------------------