20140421

J RABBIT I'M IN LOVE TAB (ACOUSTIC COVER)


There is a nice cover on friendznet's YouTube channel played by J Rabbit.
The song is called I'm in Love. Great job ladies !!!
See the TAB under the video.



J RABBIT I'M IN LOVE TAB                                                               Printable tab here

CONTACT US to purchase the GUITAR PRO TAB (5$)

Part 1

e-----0-------2---------------------------------------0-----------------
B-0h2-----2---1-------1-----------4-------------------------------------
G-------------1-------------------4-------4---3-------------------------
D---------------------------------4---4-------3-------------------------
A-0-----------0---------------------------------------------------------
E---------------------------------4-----------3-------------------------


e-------------0-----------0-------------------0---0---------------------
B-----------------0h2---------------------2-------1-----------1---------
G-2-------4-----------1---------------2-----------2---------------------
D-----2-----------------------------------------------------------------
A-----------------0---------------2---------------2---------------------
E-2-------4-------------------------------------------------------------


e-------0---------------------------------------------------------------
B-----1-----------------------------------------------------------------
G---2-------------------------------------------------------------------
D-----------------------------------------------------------------------
A-2---------------------------------------------------------------------
E-----------------------------------------------------------------------

20140416

CHRISTINA PERRI A THOUSAND YEARS TAB (ACOUSTIC COVER BY NIJAY GABOY)

Nice acoustic guitar cover of 'Christina Perri - A Thousand Years' played by
Ni-jay Gaboy. In the video you can only see 1 beautiful acoustic guitar but on the record sometimes there are more lines. Use standard tuning with Capo on the 3rd.
See the TAB of the acoustic lines below.


A THOUSAND YEARS TAB                                                                 Printable tab here

CONTACT US to purchase the GUITAR PRO TAB (5$)

Part 1

e-----------------------------------------------------------------------
B-<15>-----------<15>-----------<15>------------------------------------
G-<15>-----------<15>-----------<15>-----------17~----------------------
D-<15>-----------<15>-----------<15>------------------------------------
A-----------------------------------------------------------------------
E-----------------------------------------------------------------------

GTR2
e--6--------------------------------------------------------------------
B--6-------------------------------------------6------------------------
G--3-------------------------------------------5------------------------
D--3--------------------------------------------------------------------
A--5--------------------------------------------------------------------
E--6-------------------------------------------5------------------------


e-----------------------------------------------------------------------
B-<15>-----------<15>-----------<15>------------------------------------
G-<15>-----------<15>-----------<15>-----------17~----------------------
D-<15>-----------<15>-----------<15>------------------------------------
A-----------------------------------------------------------------------
E-----------------------------------------------------------------------

20140414

KATIE MELUA NINE MILLION BICYCLES IN BEIJING TAB (COVER BY PHIL MCGARRICK)

Phil McGarrick plays a nice cover of Katie Melua's Nine Million Bicycles in Beijing.
This version was performed originally by the legendary guitarist, Hank Marvin.
See the TAB of this instrumental version under the video.


NINE MILLION BICYCLES IN BEIJING TAB                                 Printable tab here

Part 1

e-----------------------------------------------------------------------
B-----5---7~------7---5-7---7-5-----------------------------------------
G-6-------------------------------6---4h5h6-6~--------------------4~----
D-----------------------------------------------------------4---7-------
A-----------------------------------------------------------------------
E-----------------------------------------------------------------------


e-----------------------------------------------------------------------
B-----------------------------------------------------------------------
G-------4---4/6-\-4-------------------4---4/6-\-4-----------------------
D-4---7---------------7-4~------4---7---------------7---7/9---7.--------
A-----------------------------------------------------------------------
E-----------------------------------------------------------------------


e-----------------------------------------------------------------------
B-----------------------------------------------------------------------
G-----------------------------------------------------------------------
D-----------------------------------------------------------------------
A-7/9---7---7~----------------------------------------------------------
E-----------------------------------------------------------------------

20140407

IMAGINE DRAGONS DEMONS TAB (BOYCE AVENUE FEAT. JENNEL GARCIA COVER)

Jennel Garcia and the Boyce Avenue play a cool acoustic version of Demons by
Imagine Dragons. Basically, it's the usual C G Am F structure throughout the whole song but they use a special CGCFBC tuning that makes this unique sound.
See the acoustic guitar TAB of this particular version under the video.


IMAGINE DRAGONS DEMONS TAB                                               Printable tab here

CONTACT US to purchase the GUITAR PRO TAB (5$)

(Special tuning: CGCFBC)

Part 1

c-----------------------------------------------------------------------
B-1---------------3---------------5---------------6---------------------
F-2---------------2---------------4---------------4---------------------
C-0---------------------------------------------------------------------
G-----------------0---------------2-------------------------------------
C-------------------------------------------------5---------------------


c-----------------------------------------------------------------------
B-1---------------3---------------5---------------6---------------------
F-2---------------2---------------4---------------4---------------------
C-0---------------------------------------------------------------------
G-----------------0---------------2-------------------------------------
C-------------------------------------------------5---------------------


Part 2

c---0-------------------0-----------0-------------------0---------------
B-----0---------------0-----0---------0---------------0-----0-----------
F-------2-----------2---------2---------4-----------4---------2---------
C-0---------------------------------------------------------------------
G-----------------0---------------2-------------------------------------
C-------------------------------------------------5---------------------

20140401

ERIC CLAPTON OLD LOVE SOLO TAB (LIVE AT ROYAL ALBERT HALL 1990)

Eric Clapton plays Old Love at Royal Albert Hall in 1990.
The original video title says: 'Eric Clapton Old Love 24 Nights Royal Albert Hall 1990'
There are 2 awesome guitar solos by 4:30 and by 8:44 till the end.
See the TAB of these solos under the video.


ERIC CLAPTON OLD LOVE SOLO TAB                                          Printable tab here

Solo by 4:30

e-----------------------------------------------------------------------
B-15(17)---------------~~~~~--------------------------------------------
G-----------------------------------------------------------------------
D-----------------------------------------------------------------------
A-----------------------------------------------------------------------
E-----------------------------------------------------------------------


e-----------------------------------------------------------------------
B-(17)(15)p13-15.--15.--15.--15.--15(17)--------(15)p13-----------------
G-------------------------------------------------------14-14-14--\\\---
D-----------------------------------------------------------------------
A-----------------------------------------------------------------------
E-----------------------------------------------------------------------


e-----------------------------------------------------------------------
B-13---15---13h15p13-12---13---12h13p12---------------------------------
G---------------------------------------14-12-14-12---------------------
D---------------------------------------------------14\12p10------------
A------------------------------------------------------------12-12~-----
E-----------------------------------------------------------------------

20140327

WARNING LIGHT TAB (RELAXING ACOUSTIC GUITAR MUSIC MIX BY WAVESDVDCOM)

Warning Light is the last song in this wonderful mix by 18:20.
Standard tuning with Capo on the 2nd and now a '-0-' in the TAB means the open string. See the TAB under the video and enjoy the golden sand on the beach.



WARNING LIGHT TAB                                                                        Printable tab here

CONTACT US to purchase the GUITAR PRO TAB (5$)

Part 1

e---------0h2p0---------3-----------3-----------------------------------
B---------3-----3-------------------3-----------------------3---0-------
G-----2-------------2-----------0---0-------0---2-----------2---2-------
D-0-------------------------0-----------2---------------0---------------
A-----------------------------------3-----------------------------------
E---------------------------------------------------2-------------------


e-------------3---------------------------------------------------------
B-------------------------0---0h1---------1---------------3-------------
G---------2-----------2-----------------------0-------0-----------------
D-----0-------------------------------2---2-----------0-----------------
A---------------------------------0---------------2-----------2.--------
E-3---------------3-----------------------------------------------------


e-------------------------0h2-----2---3---------------------------------
B-3-------------------------------3-----------3-------------------------
G---------0-----------2-------2-----------2-----------------------------
D-----0-----------0-----------------------------------------------------
A-3---------------------------------------------------------------------
E-----------------------------------------------------------------------

20140326

DEXTER THEME TAB (ACOUSTIC GUITAR COVER BY RIES BOSMAN)

Ries Bosman plays the Dexter theme with an acoustic guitar.
He uses the Capo but his guitar is tuned down so it sounds just like standard tuning.
See the TAB under the video.


DEXTER THEME TAB                                                                          Printable tab here

CONTACT US to purchase the GUITAR PRO TAB (5$)

Part 1

e-12-12-12-12-11--------------------------------------------------------
B----------------13-12--------------------------------------------------
G------------------------------12-12-12-12-11-10-9----------------------
D-----------------------------------------------------------------------
A-----------------------------------------------------------------------
E-----------------------------------------------------------------------


(All bass notes muted)

e-----------------------------------------------------------------------
B-----------------------------------------------------------------------
G-----------------------------------------------------------------------
D-------2---2-------2-----------2---2-------2---------------------------
A-------------2-----------------------2---------------------------------
E-0-----------------------0---------------------------------------------


Part 2   

e-----------------------------------------------------------------------
B-------0.--0-----------0-------------------0---1-----------------------
G-------------------3---------------------------------------------------
D-2-----2---2-------2-----------2---2-------2---------------------------
A-------------------------------------2---------------------------------
E-0-----------0-----------0---------------------------------------------

20140324

WHISKEY MYERS AMERICAN OULAWS TAB


Whiskey Myers - American Outlaws played with a Road Worn Fender Stratocaster.
Only the main parts of the song are shown in the video but there is the complete TAB of all the other parts and the cool solos too. Use dropped D tuning to get the right sound.
Good luck ...


WHISKEY MYERS AMERICAN OULAWS TAB                                  Printable tab here

Intro

e-----------------------------------------------------------------------
B-------------------------------------------3---------------------------
G-------------------------------------------2---------------------------
D-5p3p0-3p0-0-------------------------------0---------------------------
A-------------3p0-0-3p0-0-3p2p0-------------0---------------------------
D------------------------------3'---0-------0---------------------------


e-----------------------------------------------------------------------
B-3-----3-----------------3---------------------------------------------
G-2-----2-----------------2---------------------------------------------
D-0-----0-----------------0---------------------------------------------
A-------------------------0---------------------------------------------
D---------3'--------0-----0---------------------------------------------


e-----------------------------------------------------------------------
B-3-----3-----------------3---------------------------------------------
G-2-----2-----------------2---------------------------------------------
D-0-----0-----------------0---------------------------------------------
A-------------------------0---------------------------------------------
D---------3'---3'---0-----0---------------------------------------------