20150327

THE VIOLENTS ANACONDA TAB


Anaconda by The Violents from 1961. Great instrumental guitar song.
See the TAB under the video.



THE VIOLENTS ANACONDA TAB                                                            Download PDF


Part 1

                C                           Dm
e-------8-7-5-----------------------8-8-7-5----5------------------------
B---5-8-------8-5~--------------5-8---------6-----6---------------------
G-5---------------------------5----------------------7------------------
D-----------------------------------------------------------------------
A-----------------------------------------------------------------------
E-----------------------------------------------------------------------

               G7                                    C
e-----------------------7~----------7---7--8---7--5--3~-----------------
B---5-6--8--9--10-----8-8~----------8---8--10--8--6--5~-----------------
G-7---------------------------------------------------------------------
D-----------------------------------------------------------------------
A-----------------------------------------------------------------------
E-----------------------------------------------------------------------

                C                             F
e-------8-7-5-------------------------6-6-8-6-5-----8-5~----------------
B---5-8-------8-5~----------------5-8-----------------------------------
G-5-----------------------------5---------------------------------------
D-----------------------------------------------------------------------
A-----------------------------------------------------------------------
E-----------------------------------------------------------------------



20150318

MIKE POSS ROMANTIC GUITAR INSTRUMENTAL TAB

Mike Poss playing a great Romantic Guitar Instrumental song.
He is using a custom made Explorer guitar - made by Joe Weber.
See the TAB under the video.



MIKE POSS ROMANTIC GUITAR INSTRUMENTAL TAB                    Download PDF

Part 1

e-----------------------------------------------------------------------
B-----------------------------------------------------------------------
G------------14---------------9---------------4-/-6---------------------
D-------11----------------7---------------2-------------------7---6-----
A---9-------------9.--5-----------5.--0-------------------7-------------
E-----------------------------------------------------0-----------------


e-----------------------------------------------------------------------
B-----------------------------------------------------------------------
G------------14---------------9---------------4-/-6---------------------
D-------11----------------7---------------2-------------------4-/-6-----
A---9-------------9.--5-----------5.--0-------------------2-------------
E-----------------------------------------------------0-----------------


e-----------------------------------------------------------------------
B-----------------------------------------------------------------------
G------------14---------------9---------------4-/-6---------------------
D-------11----------------7---------------2-------------------7---6-----
A---9-------------9.--5-----------5.--0-------------------7-------------
E-----------------------------------------------------0-----------------


20150315

ROBERT JOHNSON 32 - 20 BLUES TAB (COVER BY KOKI NITOBE)

Koki Nitobe's guitar cover of 32 - 20 Blues (Robert Johnson)
Keith Richards also plays this version in some of his interviews.
See the TAB under the video.


ROBERT JOHNSON 32 - 20 BLUES TAB                                              Download PDF


e--/9-----------------------8---8-------7---7---------------------------
B--/8-----------------------7---7-------6---6---------------------------
G--/9-----------------------8---8-------7---7---------------------------
D-----------------------------------------------------------------------
A---0-----0-----0-----0-----0-----0-----0-----0-------------------------
E-----------------------------------------------------------------------

                    - all the bass notes palm muted -

e---5.----5.----5.----5.----5.------------------------------------------
B---5.----8.----7.----6.----5.------------------------------------------
G-------------------------------------7-----7---------------------------
D-------------------------------------6-----6---------------------------
A---0-----0-----0-----0-----0-----7-----7-----7-------------------------
E-----------------------------------------------------------------------


e--------/9-------------------------------------------------------------
B--------/8----------------------/8.----7---8.--------------------------
G--------/9----------------------/9.----8---9.--------------------------
D-----------------------------------------------------------------------
A---0-----0-----0-----0-----0-----0-----0-----0-------------------------
E-----------------------------------------------------------------------



20150308

PHIL MCGARRICK ELEANOR RIGBY TAB (HANK MARVIN VERSION)

Phil McGarrick plays an instrumental version of Eleanor Rigby (The Beatles)
This instrumental version was arranged originally by Hank Marvin.
See the TAB under the video.


PHIL MCGARRICK ELEANOR RIGBY TAB                                            Download PDF

Part 1

e-----------------------------------------------------------------------
B-8h10~---10~-------8h10~---10~-------13~-----12~---------8h10~---10~---
G-----------------------------------------------------------------------
D-----------------------------------------------------------------------
A-----------------------------------------------------------------------
E-----------------------------------------------------------------------



Part 2

e-----------------------------------------------------------------------
B------------------------5-8~---7-5-7---5h7p5---5~----------------------
G-5-7-7/9-5'---------5-7----------------------7------7-5-7~-------------
D-------------7~--------------------------------------------------------
A-----------------------------------------------------------------------
E-----------------------------------------------------------------------


e-----------------------------------------------------------------------
B-----5-6.---5----------------------------------------------------------
G-5-7---7.--------------------------------------------------------------
D-----------------------------------------------------------------------
A-----------------------------------------------------------------------
E-----------------------------------------------------------------------


20150302

YOSHIHIRO WADA ソロギターでアクアテラリウム TAB (AQUA TERRARIUM SOLO GUITAR)

Yoshihiro Wada plays a brilliant fingerstyle acoustic guitar song.
The name of the original YouTube video is:  ソロギターでアクアテラリウム
He is using Open Dsus4 tuning. See the TAB under the video.


YOSHIHIRO WADA ソロギターでアクアテラリウム TAB                           Download PDF


                        - Open Dsus4 tuning -

D-7p5-0-7-5p0-3-2---3-------------7p5p0-7-5-0-3-2---3-------------------
A-------0---------3-------0---3.----------0-------3-------0---3.--------
G-----0---------2-----3p0---3-----------0-------------3-0---3-----------
D---------0-----------------------0---------0---------------------------
A---------------------3-----------------------3-------------------------
D-----------------------------------------------------------------------


D-0-----------0---3-----0-------0-----------0-----2-----0-------0-------
A---------0-----------------0-------------3-------3---------3/----------
G-------0---3---0-----3-----3-----------0---------0---------0-----------
D---0h3-------------0-----0---0-----2/3-------3---3---3-----3/----------
A---------------------------------0---------------0-----0---------------
D-5---------------5-----5-----------------------------------------------


D-7---0-7----0-----0-----0-----0---------0-------0----------------------
A---------10---8-----8-----8-------12------12------8--------------------
G---0------------9-----9-----9---0----12------12-----9------------------
D-----------------------------------------------------------------------
A-----------------------------------------------------------------------
D-8-----8------8---9-----9-----9---10------10------10-------------------


20150301

TRACY CHAPMAN AND ERIC CLAPTON GIVE ME ONE REASON TAB (MAIN GUITAR SOLO)

Great version of Give me one reason by Tracy Chapman and Eric Clapton.
Brilliant Eric Clapton solo around 2:10.
See the TAB under the video.


ERIC CLAPTON GIVE ME ONE REASON SOLO TAB                          Download PDF

Solo ~ 2:13

e-----------------------------------------------------------------------
B-------10.--12.--12(14)-10'--------------------------------------------
G-/11--------------------------11~--------------------------------------
D-----------------------------------------------------------------------
A-----------------------------------------------------------------------
E-----------------------------------------------------------------------


e-----------------------------------------------------------------------
B-12(14)--------------------12(14)--------------------------------------
G-----------------------------------------------------------------------
D-----------------------------------------------------------------------
A-----------------------------------------------------------------------
E-----------------------------------------------------------------------


e-----------------------------------------------------------------------
B-12(14)-------12(14)-------12~----p10----------------10.---------------
G--------------------------------------11---11~-------------------------
D-----------------------------------------------------------------------
A-----------------------------------------------------------------------
E-----------------------------------------------------------------------


20150222

HANSEL PETHIG THE BOXER TAB (FINGERSTYLE GUITAR COVER)

Hansel Pethig plays a brilliant fingerstyle guitar cover of The Boxer (Paul Simon).
He is using standard tuning with Capo on the 2nd fret.
See the TAB under the video.



HANSEL PETHIG THE BOXER TAB                                                      Download PDF


Part 1                     - CAPO on the 2nd -

e-----------------------------------------------------------------------
B-3p0---0-----0---------------------------------------------------------
G-----2---2-----2---0-----0-----0---------------------------------------
D-----------3-----3---3-----3-------------------------------------------
A-----------------------5-----5-----------------------------------------
E-----------------------------------------------------------------------


e-----------------------------------------------------------------------
B-----------0---------------0---------------0---------------0h1---------
G-------0-------0-------0-------0-------0---------------0---------------
D-----0-------0-------0-------0-------0-------0-------0-------0---------
A-----------------------------------------------------------------------
E-3-------3-------3-------3-------3-------3-------3-------3-------------


Part 2

e-----------0-----------------------------3---2---0-----0---2p0---------
B-3-----3-------3-----0-----0h1---3-------------------------------------
G-----------------------------------------------------------------------
D-----0-------0-------0-------0-------0-------0-------2-------2---------
A-----------------------------------------------------------------------
E-3-------3-------3-------3-------3-------2-------0-------0-------------


AKRON/FAMILY AWAKE & MOMENT TAB (INTRO)

There is a nice intro part in Awake & Moment by Akron/Family. (0:00-2:29)
It is played in Dropped D tuning but unless 1 note you can play it in standard tuning too.
See the TAB under the video.



AKRON/FAMILY AWAKE & MOMENT INTRO TAB                                Download PDF


e-----------------------------------------------------------------------
B-------5-------------------3-----------3-------------------3-----------
G-3---------3---------3-----------2---------2---------2-----------------
D-----5-------5-------5-------5-\-----3-------3-------3-------3---------
A-0-------0-------0-------0-------0-------0-------0-------0-------------
D-----------------------------------------------------------------------


e-----------------------------------------------------------------------
B-------2-------------------2---------------2---------------2-----------
G-0---------0-----2-------------2-----2---------------2-----------------
D-----2-------2-------2-------2-------2-------2-------2-------2---------
A-0-------0-------0---------------0---------------0---------------------
D-----------------------------------------------------------------------


e-----------------------------------------------------------------------
B-------5-------------------3-----------3-------------------3-----------
G-3---------3---------3-----------2---------2---------2-----------------
D-----5-------5-------5-------5-\-----3-------3-------3-------3---------
A-0-------0-------0-------0-------0-------0-------0-------0-------------
D-----------------------------------------------------------------------