20141118

DAVID WAYNE HOTEL CALIFORNIA TAB (ACOUSTIC GUITAR COVER)

David Wayne plays a cool live acoustic guitar cover of Hotel California (The Eagles).
He plays the song in the original key.
See the TAB under the video.



DAVID WAYNE HOTEL CALIFORNIA TAB                                                       Print PDF

Intro

e-777---------------7-----------------6---------9p6---6-----------------
B-777---------7---------------------------7-----------------------------
G-777---7-------7-----------7---7h9---------6---------------------------
D-999-----9---------------9-------------------8-----8-------------------
A-999-------9-----9-----------------------------------------------------
E-777-------------------7-----------------------------------------------


e-5---5-----7p5---5-------------------------------7---------------------
B-5-----5-------------5---------------------7---------------------------
G-6---------------------6-----6-------7-------7-------------------------
D-7-------7-----7---------------0-------6-------------------------------
A-------------------------7-------7-------7-----7-----------------------
E-----------------------------------------------------------------------


e--7-7-7----------------7-------------------10--------------------------
B--8-8-8----------8---------8-----------------7---7---------7-------7---
G--7-7-7---7--------7---------7-----7.--------------7---------7-------7-
D--9-9-9-----9------------------7h9-----7-------7-----7-7---------------
A-101010-------10----10-----------------------------------------9-------
E-----------------------------------------------------------------------

20141115

CAT EYE AUTUMN LEAVES TAB (LEAD GUITAR PARTS)


Finally found the name of the song I discovered earlier in a great mix by Tekiu.
There are some great lead guitar parts at 3:22, at 4:13 and then later at 5:04.
See the TAB of these brilliant guitar solos under the video.



CAT EYE AUTUMN LEAVES TAB                                                                       Print PDF

Solo at 3:22

e---8-10-11.--10-8.-----------------------------------------------------
B-8------------------11.--13~-------------8-11.--9-8.--11.--------------
G---------------------------------------8-------------------8h10~-------
D------------------------------------10---------------------------------
A-----------------------------------------------------------------------
E-----------------------------------------------------------------------


e-----------------------------------------------------------------------
B-----------------------------------------------------------------------
G------8.--8------------------------------------------------------------
D-8h10-------10----------8.--8------------------------------------------
A-------------------8h10-------8~---------------------------------------
E-----------------------------------------------------------------------


e---8-10-11.--10-8.-----------------------------------------------------
B-8------------------11.--13~-------------8-11.--9-8.--11.--------------
G---------------------------------------8-------------------8h10~-------
D------------------------------------10---------------------------------
A-----------------------------------------------------------------------
E-----------------------------------------------------------------------

20141109

SAILORS HORNPIPE TAB (FLATPICKING COVER BY SHANE BUMGARNER)

The original video title says: Flatpicking Sailors Hornpipe.
The old irish song played with two acoustic guitars.
See the TAB under the video.


SAILORS HORNPIPE TAB                                                                              Print PDF


Intro

e-----------------------------------------------------------------------
B-----------------------------------------------------------------------
G-----------------------------------------------------------------------
D-0-------0-------0-------0---------------------------------------------
A-3/5---5-5---5-5-5---5-5-5---------------------------------------------
E-----------------------------------------------------------------------


Guitar 1
      D                               E               A       
e-------------------------------2-0---0-----------0---------------------
B-3-2-3-------------------3-2-3-----3---------------3-2-0---------------
G-----------------2-0---2---------------------------------2-1-2---------
D---------0---0-4-----4-------------------2.--2-------------------------
A-----------------------------------------------------------------------
E-----------------------------------------------------------------------

      D       G       A       D       A               D
e-----------------------------------------------------------------------
B-0-2-3-2-0---0-------------------------------------------3.--3---------
G-----------2---2-0---0---------------------------0-------2.--2---------
D-------------------4---4-2-0-2-0-----------0-2-4---2-4---0.--0---------
A---------------------------------4-2-0-2-4-----------------------------
E-----------------------------------------------------------------------

20141102

AER ROOM TO BREATHE TAB

Aer Room to breathe is not a typical guitar song but starts with a brilliant lick that follows up throughout the whole song. 3 guitar lines can be heard: 1 with the main melody, a 2nd that only hits the background chord sometimes and a 3rd line later with melody 2.
See the TAB under the video.



AER ROOM TO BREATHE TAB                                                                        Print PDF


Main melody

e-----------------------------------------------------------------------
B------9h10p9--------------------------------------12.------------------
G-9h11----------11-9------------------9-11-11/13------------------------
D--------------------11-------------------------------------------------
A-----------------------------------------------------------------------
E-----------------------------------------------------------------------

(Background guitar)
e-----------------------------------------------------------------------
B----------(9)----------------------------------------------------------
G----------(9)----------------------------------------------------------
D----------(11)---------------------------------------------------------
A-----------------------------------------------------------------------
E-----------------------------------------------------------------------


e-----------------------------------------------------------------------
B-----------------------------------------------------------------------
G-9-11-11/13-------11---------------------------------------------------
D-----------------------------------------------------------------------
A-----------------------------------------------------------------------
E-----------------------------------------------------------------------

20141026

MIRAI NIKKI KUUSOU MESOROGIWI TAB (GUITAR COVER BY KIKAHO)

Mirai Nikki Kuusou Mesorogiwi covered and arranged by KiKaHo.
Great headbanger riffs in half-step down tuning and a brilliant solo.
See the TAB under the video.



MIRAI NIKKI KUUSOU MESOROGIWI TAB                                                    Print PDF


#1

D#----------------------------------------------------------------------
A#----------------------------------------------------------------------
F#----------------------------------------------------------------------
C#----------------------------------------------------------------------
G#----------------------------------------------------------------------
D#-0-0-3-0-0-5-0-6-0-5-0-3-0-0-5---0-0-3-0-0-5-0-0-6-0-0-5-0-0-3--------
   x x   x x   x   x   x   x x     x x   x x   x x   x x   x x

D#----------------------------------------------------------------------
A#----------------------------------------------------------------------
F#----------------------------------------------------------------------
C#----------------------------------------------------------------------
G#----------------------------------------------------------------------
D#-0-0-3-0-0-5-0-6-0-5-0-3-0-0-5---0-0-3-0-0-5-0-0-6-0-0-5-0-0-3--------
   x x   x x   x   x   x   x x     x x   x x   x x   x x   x x


#2

D#----------------------------------------------------------------------
A#----------------------------------------------------------------------
F#----------------------------------------------------------------------
C#----------------------------------------------------------------------
G#-----------------5----------------------------------------------------
D#-0---7---6---7-----8.--7---7-6---0---7---6---7---8.------7.-----------

20141019

BRITTNI PAIVA LIGHTS UKULELE TAB


Brittni Paiva plays Lights with a nice Ukulele and a Boss ME-70 pedal.
She uses "low G standard" tuning.
TAB under the video.



BRITTNI PAIVA LIGHTS UKULELE TAB                                                          Print PDF

Loop 1

A-3---x-3---x-3---x-3---x-3-3-3-3-2---x-2---x-2---x-2---x-2-2-2-2-------
E-----------------------------------------------------------------------
C-----------------------------------------------------------------------
G-----------------------------------------------------------------------


A-3---x-3---x-3---x-3---x-3-3-3-3-3---x-3---x-3---x-3---x-3-3-3-3-------
E-----------------------------------------------------------------------
C-----------------------------------------------------------------------
G-----------------------------------------------------------------------


Loop 2

A-----------------------------------------------------------------------
E-------5-----------------5-------------3-----------------3-------------
C-------------4---------------4---------------2---------------0---------
G-2-------------------2-----------0-------------------0-----------------

20141015

UNCHARTED 3 DRAKE'S DECEPTION TAB (GUITAR COVER BY ASTRAVEX)

AstraVex plays a lead guitar cover of the Uncharted 3 theme.
Use distortion and delay as much as you can.
See the TAB under the video.



UNCHARTED 3 DRAKE'S DECEPTION TAB                                                  Print PDF

e-----------------------------------------------------------------------
B--------------10/12~-----10~---------10-8-10/12~------------\\\--------
G-9-11-12~--------------------------------------------------------------
D-----------------------------------------------------------------------
A-----------------------------------------------------------------------
E-----------------------------------------------------------------------


e-----------------------------------------------------------------------
B-12(13)--------------12---10---8---10/12-10~---------------------------
G-----------------------------------------------------------------------
D-----------------------------------------------------------------------
A-----------------------------------------------------------------------
E-----------------------------------------------------------------------


e-17-19-19(20)--------19---17---15---17/19-17~--------------------------
B---------------------------------------------------15~------17~--------
G-----------------------------------------------------------------------
D-----------------------------------------------------------------------
A-----------------------------------------------------------------------
E-----------------------------------------------------------------------

20141010

SUPERCELL KIMI NO SHIRANAI MONOGATARI TAB (FINGERSTYLE GUITAR COVER BY THE FIREBLITZ)

Nice fingerstyle guitar cover played by The Fireblitz.
The song is called Kimi No Shiranai Monogatari by Supercell.
TAB under the video.



SUPERCELL KIMI NO SHIRANAI MONOGATARI TAB                                  Print PDF

Part 1

e-0-0-0-0---0-0-0-0-0-------------0-0-0-0-0---0-0-----------------------
B-2-------------------3-2---0-----0-------0-------5-5-3-2---------------
G-2-----------------------------2-1-------1-----------------4-----------
D-2---------------0-----------------------------------------------------
A-0---------------------------------------------------------------------
E---------------------------------0---------------2-------2---0---------


e---------------------------------0-------4-------5---4---5---7---------
B---------2-------0-------3-------0---------------7---------------------
G-2-------------------2-----------1---1-----------7---------------------
D-----2-----------0-----------0-----------------------------------------
A-0-----------0---------------------------------------------------------
E---------------------------------0-----------0---0---------0-----------


Part 2

e-5-------0---------------0-----------------------------------5---------
B-3-----------3---2-----------3---2-------5---3---2---3---5-------------
G-2---2-----2---2-----1-----1---1-----2-----------------2---------------
D-0-----0---------------------------------------------------------------
A-------------------------------------------------0---------0-----------
E-----------------0-----0---------2-----2---2---2-----------------------