20160925

FUNTWO IT'S OK TAB (FUNTWO'S ORIGINAL SONG)


Funtwo's original song called It's OK - a song written to encourage you on harder days.
Download the Guitar Pro Tab below.



FUNTWO IT'S OK TAB

PDF >>

e-------2---x------------------------------2---x------------------------
B-------3---x-2.-2.-2.-3-------------------3---x-2.-2.-2.-0-------------
G-------------2.-2.-2.-2-------------------------2.-2.-2.-0-------------
D---0-------x--------------------------0-------x------------------------
A-----------------------------------------------------------------------
E-------------2.-2.-2.-3-------------------------2.-2.-2.-3-------------


e-----------------------------------------------------------------------
B-----------------------------------------------------------------------
G---7---7~--p6----------------------------------------------------------
D--------------7----7h9~-----p7-7---------------------------------------
A----------------9.-----------------------------------------------------
E-----------------------------------------------------------------------


e-----------------------------------------------------------------------
B-----------------------------------------------------------------------
G-----------4-4------------7/9\7.-6~------------------------------------
D---5\4/5h7-----7.-5\4/5---------------7--------------------------------
A-----------------------------------------------------------------------
E-----------------------------------------------------------------------


20160920

JOHN CORABI HOOLIGAN'S HOLIDAY TAB (GUITAR SOLO)


There is an awesome acoustic guitar solo in Hooligan's Holiday by John Corabi.
It starts about 2:50 in the song, played in half-step down tuning.
See the TAB under the video.



JOHN CORABI HOOLIGAN'S HOLIDAY GUITAR SOLO TAB


 ~ 2:50

eb----------------------------------------------------------------------
Bb----------------------------------------------------------------------
Gb----------------------------------------------------------------------
Db------------------3~---5(7).--5(7)(5)p3--5-3~-------------------------
Ab--------------3-5----------------------5------------------------------
Eb---1-----1-3/5--------------------------------------------------------


eb----------------------------------------------------------------------
Bb------------6~----------6-\-------------------------------------------
Gb--------5-7-5~----------5-\-------------------------------------------
Db---3-5/7--------------------------------------------------------------
Ab----------------------------------------------------------------------
Eb----------------------------------------------------------------------


eb----------------------------------------------------------------------
Bb-----13(15)-----13.-12.-11.-10--------10-11-13------------------------
Gb-------------------------------12(13)----------12(14).--10~-----------
Db----------------------------------------------------------------------
Ab----------------------------------------------------------------------
Eb----------------------------------------------------------------------


20160917

LA FUGA EN VELA TAB (GUITAR SOLO)

Great guitar solo in La Fuga - En Vela around 1:50 till around 2:20.
The solo is in F# minor played in standard tuning.
See the TAB under the video.



LA FUGA EN VELA SOLO TAB


(1:54 - 2:22)

e-----------------------------------------------------------------------
B-----------------------------------------------------------------------
G---/14----14~-------------16(18).--14~---------------------------------
D-------16--------------------------------------------------------------
A-----------------------------------------------------------------------
E-----------------------------------------------------------------------


e-----------------------------------------------------------------------
B--17(19)---17-14-17-14h17p14--14---------------------------------------
G----------------------------16--16(18)(16)p14--14-16(18)(16)p14-16-16\-
D---------------------------------------------16------------------------
A-----------------------------------------------------------------------
E-----------------------------------------------------------------------


e----------------------------------------------17(19)---17~-------------
B--------------------------------17(19).--17.---------------------------
G---------14~-------16(18).--14-----------------------------------------
D---/14h16--------------------------------------------------------------
A-----------------------------------------------------------------------
E-----------------------------------------------------------------------


20160912

HANSEL PETHIG MAD WORLD TAB (FINGERSTYLE GUITAR COVER OF GARY JULES'S SONG)

Brilliant fingerstyle guitar cover of Mad World (Gary Jules) played by Hansel Pethig.
Dropped D tuning with CAPO on the 8th fret.
Download the Guitar Pro Tab below.



HANSEL PETHIG MAD WORLD TAB

PDF >>

Part 1

e------0----------------------------------------------------------------
B---1-----0--1-----0-----------------------------1----------------------
G---------------2-----0-------------------------------------------------
D---------2-----------2--4-----------2-----0----------------------------
A---0-----------0-----------------0-----------0-------------------------
D---------------------------0-----------0-------------------------------


e------0----------------------------------------------------------------
B---------0--1-----0--1--3----------------------------------------------
G---------------2--------0-----------0----------------------------------
D---------2-----------2-----------2-----4--2--0-------------------------
A---0-----------0--------------0-----------------3----------------------
D---------------------------0-------------------------------------------


e------0----------------------------------------------------------------
B---1-----0--1-----0-----------------------------1----------------------
G---------------2-----0-------------------------------------------------
D---------2-----------2--4-----------2-----0----------------------------
A---0-----------0-----------------0-----------0-------------------------
D---------------------------0-----------0-------------------------------



20160906

JOE BONAMASSA SLOE GIN GUITAR SOLO TAB (COVER BY FLORIAN CASCIANO)


Florian Casciano plays a great cover of Joe Bonamassa - Sloe Gin guitar solo part.
See the TAB under the video.



JOE BONAMASSA SLOE GIN GUITAR SOLO TAB


e-----------------------------------------------------------------------
B-------------------------------3-----------3---3---3---3---3---3-------
G---2---------------------------0-----------0---0---0---0---0---0-------
D---2-------2---2---2---2---2---0-----------0---0---0---0---0---0-------
A---0-------0---0---0---0---0---x-----------x---x---x---x---x---x-------
E-------------------------------3-----------3---3---3---3---3---3-------


e-----------1p0-----------------------------3---------------------------
B---------3-----3p1---------1-p-0---------------0-0---------------------
G---2---2---------------0---------------0-------0-0-3-------5-----------
D---0---------------3-------------------------------3---3-3-5---5-5-----
A---------------------------------------------------1---1-1-3---3-3-----
E-----------------------------------3-----------------------------------


e-----------------------------------------------------------------------
B-------------------------------3---------------------------------------
G---2-------2-------2-----------0---------------------------------------
D---2---2---2---2---2---2---2---0---------------------------------------
A---0---0---0---0---0---0---0---x---------------------------------------
E-------------------------------3---------------------------------------


20160901

ERIC TINGSTAD DANZA MORA TAB (LEAD GUITAR LINE, GUITAR PRO)

Eric Tingstad - Danza Mora, great instrumental guitar song.
Sometimes there are 2 lead guitar lines in the song.
See the TAB under the video.



ERIC TINGSTAD DANZA MORA TAB

PDF >>

Part 1

e--------------------5-----------------------6---5~---------------------
B---------------5h6h8-----8----6---5----8-------------------------------
G---7~------------------------------------------------------------------
D-----------------------------------------------------------------------
A-----------------------------------------------------------------------
E-----------------------------------------------------------------------


e---6---p5--------------------------------------------------------------
B-------------8---8~-----------------------6---5~-----------------------
G--------------------------------6---h7---------------------------------
D-----------------------------------------------------------------------
A-----------------------------------------------------------------------
E-----------------------------------------------------------------------


e--------5~---------6--p5~-------------10~----------9h10p9--------------
B---5h6h8-------------------------------------------------10~-----------
G-----------------------------------------------------------------------
D-----------------------------------------------------------------------
A-----------------------------------------------------------------------
E-----------------------------------------------------------------------



20160830

FLEETWOOD MAC NEED YOUR LOVE SO BAD TAB (INSTRUMENTAL GUITAR COVER BY TERRY R)

Terry R plays Fleetwood Mac's Need Your Love So Bad.
Great instrumental guitar cover.
TAB under the video.



NEED YOUR LOVE SO BAD INSTRUMENTAL TAB


Part 1

e-----------------------------------------------------------------------
B------------10.--12(14)---(12)(14)------------(12)---------------------
G---9-/-11--------------------------------------------------------------
D-----------------------------------------------------------------------
A-----------------------------------------------------------------------
E-----------------------------------------------------------------------


e-----------------------------------------------------------------------
B------------10h12p10--10~----------------------------------------------
G---9-/-11-----------11-------------------------------------------------
D-----------------------------------------------------------------------
A-----------------------------------------------------------------------
E-----------------------------------------------------------------------


e-----------------------------------------------------------------------
B--------------10---12--10~---------------------------------------------
G---9---9/11----------11------------------------------------------------
D-----------------------------------------------------------------------
A-----------------------------------------------------------------------
E-----------------------------------------------------------------------


20160823

DAVID LOCKE WONDERFUL TONIGHT TAB (FRET-KING COUNTRY SQUIRE)

David Locke plays an instrumental guitar cover of Wonderful Tonight.
The original song is by Eric Clapton.
Download the Guitar Pro Tab below.



DAVID LOCKE WONDERFUL TONIGHT TAB

PDF >>

Part 1

e-----------------------------------------------------------------------
B-------10(12)-(10)p8.-10~------10(12)-(10)p8.--------------------------
G-----7----------------------------------------9~-----------------------
D-----------------------------------------------------------------------
A-----------------------------------------------------------------------
E-----------------------------------------------------------------------


e-----------------------------------------------------------------------
B------10(12)-(10)p8.-10~----12~--/13~---15(17)---(15)~---\-------------
G---7.------------------------------------------------------------------
D-----------------------------------------------------------------------
A-----------------------------------------------------------------------
E-----------------------------------------------------------------------


e-----------------------------------------------------------------------
B------10(12)-(10)p8.-10~---------10(12)-(10)p8.------------------------
G------------------------------7.----------------9~---------------------
D-----------------------------------------------------------------------
A-----------------------------------------------------------------------
E-----------------------------------------------------------------------