20160210

SLASH & MYLES KENNEDY PATIENCE TAB (ACOUSTIC LIVE @ MAX SESSIONS)

Slash & Myles Kennedy play Patience live at MAX Sessions.
They both use half step down tuning. The songs starts about 2:20.
See the TAB Slash's guitar playing under the video.


SLASH & MYLES KENNEDY PATIENCE TAB (ACOUSTIC)

PDF >>

Intro

eb---0-------0----------------------------------------------------------
Bb---1---------------3p1---0h1------------------------------------------
Gb---0-------------------------0---0-----0---------0-------0------------
Db---2-------------2-----2-------2-----0-----------------0---0-----0----
Ab---3-----------3-------------------2---------0-------2-------2--------
Eb---------------------------------------------------3-----------3------


eb--------------------------------------------0h2---2-3-2-----2---------
Bb--------2h3-2-------------2-3-2---------3-------3-------3-----3---8~--
Gb------2-------2---2-----2-------2-----2---2---------------2----/9-----
Db----2-----------2-----2-----------2-0---------------------------------
Ab--0-----------------0-------------------------------------------------
Eb----------------------------------------------------------------------


eb-------------------10-----------------------7-8-9-10------------------
Bb-----10-8-10(12)-----(12)(10)p8-10-8-10(12)----------10(12).---8~-----
Gb----------------------------------------------------------------------
Db----------------------------------------------------------------------
Ab----------------------------------------------------------------------
Eb----------------------------------------------------------------------


20160205

LYLE WORKMAN AND THE FOREST RANGERS FORTUNATE SON TAB (SONS OF ANARCHY)

Two nylon stringed acoustic guitars and one song called Fortunate Son.
Music from Sons of Anarchy played by Lyle Workman & The Forest Rangers.
Original song by Creedence Clearwater Revival.
See the TAB under the video.


LYLE WORKMAN AND THE FOREST RANGERS FORTUNATE SON TAB

PDF >>

Part 1

G1
e-----3----------------1------------------------------------------------
B----------------------------------------5-----------------3------------
G--2/4--------------4\2-------------------------------------------------
D-------------------------------------3/5---------------5\3-------------
A-----------------------------------------------------------------------
E-----------------------------------------------------------------------

G2
e----------7---------------5---------------3---------------7------------
B--------------0-------------------------------1------------------------
G--0---------0---0---5---------5-----0-------------------7--------------
D------------------3---------3---3-2-----2---2---2----------------------
A-----------------------------------------------------------------------
E-----------------------------------------------------------------------


G1
e-----3----------------1------------------------------------------------
B----------------------------------------5-----------------3------------
G--2/4--------------4\2-------------------------------------------------
D-------------------------------------3/5---------------5\3-------------
A-----------------------------------------------------------------------
E-----------------------------------------------------------------------

G2
e----------7---------------5---------------3-----------7----------------
B----------------------------------------1---1--------------------------
G--------7-----7---------5-----5-----0---------------7---7--------------
D--5---------5---5-3---------3---3-2-----------2---5-------5------------
A-----------------------------------------------------------------------
E-----------------------------------------------------------------------



20160201

IN THE SUMMERTIME SLASH SOLO TAB (BILLY IDOL, SLASH, DEREK SHERINIAN VERSION)

Slash plays a great guitar solo in this song about 1:25.
In the summertime originally by Mungo Jerry.
See the solo tab under the video.



IN THE SUMMERTIME SLASH SOLO TAB

PDF >>

e----------12-----------------------------------------------------------
B--------12--15.---17~-------17p15--14-p12------------------------------
G---12h13-------------------------16------14--12h13~--------------------
D-----------------------------------------------------------------------
A-----------------------------------------------------------------------
E-----------------------------------------------------------------------


e----------12-----------------------------------------------------------
B--------12--15.--17~----17(20)----(17)-12----15-(15)(14)p12----12------
G---12h13---------------------------------14----------------14----------
D-----------------------------------------------------------------------
A-----------------------------------------------------------------------
E-----------------------------------------------------------------------


e-----------------------------------------------------------------------
B--------12---14---12-------12------------------------------------------
G---12h13---13---13---11/13---13\11p9-11--9----9------------------------
D------------------------------------------11---------------------------
A-----------------------------------------------------------------------
E-----------------------------------------------------------------------


20160124

ZOE MCCULLOCH & MASON WILLIAMS ELECTRICAL GAS TAB (CLASSICAL GAS)


Zoe McCulloch & Mason Williams play Electrical Gas.
See the TAB under the video.


ZOE MCCULLOCH & MASON WILLIAMS ELECTRICAL GAS TAB

PDF >>


Part 1

e-----------------------------------------------------------------------
B---13------------13-----12---------------------------------------------
G----------14-----------------------------------------------------------
D-----------------------------------------------------------------------
A-----------------------------------------------------------------------
E-----------------------------------------------------------------------


e-----------------------------------------------------------------------
B-----------------------------------------------------------------------
G---14(16)-----(14)-12---14---------------------------------------------
D-----------------------------------------------------------------------
A-----------------------------------------------------------------------
E-----------------------------------------------------------------------


e-----------------------------------------------------------------------
B-------------12h13p12--12---13---12------------------------------------
G--------14-----------14------------------------------------------------
D---14------------------------------------------------------------------
A-----------------------------------------------------------------------
E-----------------------------------------------------------------------


20160116

ADAM LEE HUMAN NATURE TAB (INSTRUMENTAL GUITAR COVER OF MICHAEL JACKSON'S SONG)

Adam Lee plays a nice instrumental guitar cover of Human Nature.
Original song by Michael Jackson.
See the TAB under the video.


ADAM LEE HUMAN NATURE TAB

PDF >>

Part 1

e-----------------------------------------------------------------------
B-----------------------------------------------------------------------
G----------7.-----------------------------------------------------------
D---7h9~-------9/11\9/11~-----9-7~------7-7h9.-7.-----------------------
A-------------------------------------------------7h9.-9\7~-------------
E-----------------------------------------------------------------------


e-----------------------------------------------------------------------
B-----------------------------------------------------------------------
G---------7.---------9--------------------------------------------------
D---7-7h9-----9/11~----11\9p7-7h9~----p7~-------------7~----------------
A-----------------------------------------------7-7-9-------------------
E-----------------------------------------------------------------------
                                                x x x

e-----------------------------------------------------------------------
B-----------------------------------------------------------------------
G---------7.----------------9-------------------------------------------
D---7h9~------9/11-9/11~-----11\9p7-7~-----7-7h9.-7.--------------------
A----------------------------------------------------7h9.-9\7~----------
E-----------------------------------------------------------------------


20160109

AIRLINE 59 2P DEMO - RJ RONQUILLO TAB (EASTWOOD GUITARS)

RJ Ronquillo plays a cool demo for the Eastwood Airline '59 2P guitar.
Killer sound in standard tuning !!!
See the TAB of the first minute under the video.



RJ RONQUILLO EASTWOOD AIRLINE 59 2P DEMO TAB

PDF >>

e-----------------------------------------------------------------------
B------------------------------------------------5---5.-----------------
G---5-5-5-5.--4-6/7-7.--------------/7-7-7-7.--5-5---5.-----------------
D---7-7-7-7.--6-8/9-9.--------------/9-9-9-9.--7---------------2-2------
A-----------------------------2-2------------------------3~--3-----0.---
E-----------------------4~--4-----0.------------------------------------


e---------------------------------0-0-0-0-0-0-0-0.--0.--0-0.------------
B---------------------------------5-6-5-4-3-2-1-0.--1.--1-1.------------
G--/5-5-5-5.--4-7---7.------------------------------2.--2-2.--5-5-5~----
D--/7-7-7-7.--6-9---9.------------------------------2.--2-2.--4-4-4~----
A-----------------------------2-/-------------------0.--0-0.--5-5-5~----
E-----------------------4~----------------------------------------------


e--------------------------------------------------------0.-------------
B--------------------------------------------------------0.-------------
G-----------------------------------------------------------------------
D-----------------------------------------------------------------------
A------------------------------3-5.--6(7)~------------------------------
E--5-3-5-5-5-3-5~--5-3-5~--5-5------------------------------------------



20160101

METALLICA NOTHING ELSE MATTERS AWESOME INTRO TAB (LIVE IN SIDNEY)

Awesome intro of Nothing Else Matters live in Sydney.
Until about 0:45 and then comes the original song.
Half-step down tuning. TAB under the video.


NOTHING ELSE MATTERS AWESOME INTRO TAB (LIVE)

PDF >>

eb----------------------------------------------------------------------
Bb----------------------------------------------------------------------
Gb----------------------------------------------------------------------
Db-----6-7-7/9\7p6------------------------------------------------------
Ab---7-------------7~---------------------------------------------------
Eb----------------------0-----------------------------------------------


eb----------------------------------------------------------------------
Bb----------------------------------------------------------------------
Gb-----9.---------------------------------------------------------------
Db----9----8-6----------------------------------------------------------
Ab---x---------9-7-6-7-7/9\7-6----------6-7-----------------------------
Eb-----------------------------7~-----------0---------------------------


eb----------------------------------------------------------------------
Bb----------------------------------------------------------------------
Gb----------------------------------------------------------------------
Db-----------------9-8-6------------------------------------------------
Ab---6-7-7/9\7-6---------9-7-6-7~---------------------------------------
Eb---------------7------------------0-----------------------------------


20151227

BURNS ERNST SPANISH HARLEM TAB

Burns Ernst plays Spanish Harlem with a nice Fender Stratocaster.
Nice instrumental guitar cover.
See the TAB under the video.



BURNS ERNST SPANISH HARLEM TAB

PDF >>

Part 1

e-----------------------------------------------------------------------
B-----------------------------------------------------------------------
G-----------------------4---6---4h6p4-----------------------------------
D---4---4---5-5/7---7-----------------7~--------------------------------
A-----------------------------------------------------------------------
E-----------------------------------------------------------------------


e-----------------------------------------------------------------------
B-----------------------------------------------------------------------
G-----------------------4---6---4h6p4-----------------------------------
D---4---4---5-5/7---7-----------------7~--------------------------------
A-----------------------------------------------------------------------
E-----------------------------------------------------------------------


e-----------------------------------------------------------------------
B-----5-----------5---------5-----5-------------------------------------
G---------7---4-----7---4-----7-4---7---4-------------------------------
D-----------------------------------------------------------------------
A-----------------------------------------------------------------------
E-----------------------------------------------------------------------