20160625

BLAZE FOLEY CLAY PIGEONS TAB (RARE LIVE)


Blaze Foley sings Clay Pigeons on the front porch.
He is using standard tuning with Capo on the 2nd fret.
See the TAB under the video.



BLAZE FOLEY CLAY PIGEONS TAB

PDF >>

Intro                  Capo on the 2nd

e-----------------------------------------------------------------------
B---0---------0-----1p0-------0-----1---------1-----3p1-------1---------
G---------0---------------2---------------0---------------0-------------
D-------0-------0-------0-------0-------2-------2-------2-------2p0-----
A-----------------------------------3---------------3-------------------
E---3-------3-------3-------3---------------3---------------3-----------


e-------------------------------------------------3---------------------
B-------------0-----------3-------------------0---------------0---------
G---------0-------2-----------2---0-------------------------------0-----
D-------0-------0-------0-------0-------0-------0-------0-------0-------
A-----------------------------------------------------------------------
E---3-------3-------2-------2-------3-------3-------3-------3-----------


Verse

e-----------------------------------------------------------------------
B-------------0---------------0-----1---------1---------------1---------
G-----------------0---------------0-------0-------0---------------0-----
D-------0-------0-------0-------0-------2-------2-------2-------2-------
A-----------------------------------3---------------3-------------------
E---3-------3-------3-------3---------------3---------------3-----------



20160620

CHRIS BRANIFF NIGHT TRAIN TAB (THE YOUNG SHADDOW)

Chris Braniff plays Night Train with his Fender Stratocaster.
Very nice instrumental guitar playing.
See the TAB under the video.



CHRIS BRANIFF NIGHT TRAIN TAB


Part 1

e-----------------------------------------------------------------------
B-----------------------------------------------------------------------
G-----2-4-5---------------------------5---4-----------------------------
D---2-----------------2---3---------------------------0---2-------------
A-----------------------------------------------------------------------
E-----------------------------------------------------------------------


e-----------------------------------------------------------------------
B-----------------------------------------------------------------------
G---------2-------------------------------------------------------------
D-----2-5-----5---3---2---2-------1---2/4---2---------------------------
A---3-------------------------------------------------------------------
E-----------------------------------------------------------------------


e-----------------------------------------------------------------------
B-----------------------------------------------------------------------
G-----2-4-5---------------------------5---4-----------------------------
D---2-----------------2---3---------------------------0---2-------------
A-----------------------------------------------------------------------
E-----------------------------------------------------------------------


20160612

JESSE COOK SHAKE TAB


Jesse Cook plays his original song "Shake" Very nice flamenco guitar playing.
More guitar lines are recorded at the same time - that's why it sounds so complex.
See the TAB of the main solo parts under the video.



JESSE COOK SHAKE TAB


Intro

    Gm                               Cm
e---3--------------------------------3----------------------------------
B---3--------------------------------4----------------------------------
G---3--------------------------------5---5-5-5---5----------------------
D---5---5-5-5---5--------------------5---5-5-5---5----------------------
A---5---5-5-5---5--------------------3---3-3-3---3----------------------
E---3---3-3-3---3-------------------------------------------------------

    Gm                               A               Ab
e---3--------------------------------5---------------4------------------
B---3--------------------------------5---------------4------------------
G---3--------------------------------6---------------5------------------
D---5---5-5-5---5--------------------7---7-7-7-------6---6-6-6----------
A---5---5-5-5---5--------------------7---7-7-7-------6---6-6-6----------
E---3---3-3-3---3--------------------5---5-5-5-------4---4-4-4----------


Main Melody

e-----------------------------------------------------------------------
B-----------------------------------------------------------------------
G---------------3---3/--7---7---7p5-7---8~------\-----------------------
D-------5---5-----------------------------------------------------------
A---5-------------------------------------------------------------------
E-----------------------------------------------------------------------


20160602

DR VIOSSY BOHEMIAN RHAPSODY FOR SOLO GUITAR TAB (QUEEN)

Dr. Viossy plays Bohemian Rhapsody for solo guitar. Brilliant fingerstyle arrangement!
It's possible to play this piece with a normal 6 string guitar as the low B string (7th string) is not being used too much. Original song by Freddie Mercury (Queen)
See the TAB under the video.


DR VIOSSY BOHEMIAN RHAPSODY FOR SOLO GUITAR TAB

PDF >>

e-----------------------------------------------------------------------
B---10.--10.--10.--10-------10---\--------------------------------------
G---11.--11.--11.--11-------11---\--------------------------------------
D---14.--14.--14.--14-------14---\--------------------------------------
A-----------------------------------------------------------------------
E-----------------------------------------------------------------------
B-----------------------------------------------------------------------


e-----------------------------------------------------------------------
B---10.--10---10.--10---10-7--------------------------------------------
G---11.--11---11.--11---11-8--------------------------------------------
D---13.--13---14.--13---11-9--------------------------------------------
A-----------------------------------------------------------------------
E-----------------------------------------------------------------------
B-----------------------------------------------------------------------


e-----------------------------------------------------------------------
B---9---9---9---9h10---9------------------------------------------------
G---9---9---9---9h11---9------------------------------------------------
D-----------------------------------------------------------------------
A-----------------------------------------------------------------------
E--------------------------<12>---<12>----------------------------------
B-----------------------------------------------------------------------


20160525

THE VENTURES THE HOUSE OF THE RISING SUN TAB (BASED ON THE GUITAR COVER BY AGENTMAN1991)

Nice guitar cover of The House of the Rising Sun based on how The Ventures play it.
The intro/main riff is played better on a live Ventures record - so the tab follows that version. The rest of the tab is based on this cover. All these great solos are included. Good luck :D



THE VENTURES THE HOUSE OF THE RISING SUN TAB

PDF >>

Part 1

e----------0----------------0----------------2----------------1---------
B-------1-----1----------1-----1----------3-----3----------1-----1------
G------2---------2------0---------0------2---------2------2---------2---
D-----2----------------2-------------0--0-------------3--3--------------
A--0----------------3---------------------------------------------------
E-----------------------------------------------------------------------


e----------0------------------------------------------------------------
B-------1-----1-------------3--1--0-------1--1-p0-----------------------
G------2---------2-------1---------------2---------2--1-----------------
D-----2-----------------0---------------2-------------0-----------------
A--0-------------------2-------------0----------------2-----------------
E-------------------0---------------------------------------------------


Part 2

e-----------------------------------------------------------------------
B-----------------------------------------------------------------------
G-----------------------------------------------------------------------
D----------------------------0h2-0--------------------------------------
A--0--0---------2--2h3~------------0-0----------------------------------
E-----------------------------------------------------------------------


20160521

RIOT V TAKE ME BACK TAB (LEAD GUITAR LINE - GUITAR PRO TAB)

Riot V - Take me back lead guitar line.
See the TAB under the video.



RIOT - TAKE ME BACK TAB

PDF >>

Intro

e-----------------------------------------------------------------------
B-----------------------------------------------------------------------
G----------------------------0---2-------5---7~-------------------------
D----------------------------0---2-------5---7~-------------------------
A---5p3p0-6p0-10-7p0-6-5p3p0-------0-0-0--------------------------------
E-----------------------------------------------------------------------
                                   x x x

e-----------------------------------------------------------------------
B----------------------------------------3------------------------------
G----------------------------0---2-------0------------------------------
D----------------------------0---2-------0------------------------------
A---5p3p0-6p0-10-7p0-6-5p3p0-------0-0-0-x------------------------------
E----------------------------------------3------------------------------
                                   x x x

e-----------------------------------------------------------------------
B-----------------------------------------------------------------------
G----------------------------0---2-------5/7-5~-------------------------
D----------------------------0---2-------5/7-5~-------------------------
A---5p3p0-6p0-10-7p0-6-5p3p0-------0-0-0--------------------------------
E-----------------------------------------------------------------------
                                   x x x



20160514

BLUE ENCOUNT DAY X DAY TAB (GUITAR COVER BY ORBIT 1024)

Blue Encount - Day x Day - lead guitar cover.
Played by "orbit1024al" on YouTube.
Attention!!! Half-Step Up tuning, see the TAB under the video.



BLUE ENCOUNT DAY X DAY TAB

PDF >>

Intro

F-----------------------------------------------------------------------
C-----------------------8-8-8-101010.-----------------------------------
Ab----------------------------------------------------------------------
Eb----------------------5-5-5-7-7-7.------------------------------------
Bb----------------------------------------------------------------------
F-----------------------------------------------------------------------


F---12----\----------12-\-----------------------------------------------
C-----------8-/-10-/------8-/-13-/-13-12-x------------------------------
Ab--9-----\----------9--\-----------------------------------------------
Eb----------5-/-7--/------5-/-7--/-10-9--x------------------------------
Bb----------------------------------------------------------------------
F-----------------------------------------------------------------------


F---12----\----------20\19-19\17-17\15-15-15-x--------------------------
C-----------8-/-10-/----------------------------------------------------
Ab--9-----\----------17\16-16\14-14\12-12-12-x--------------------------
Eb----------5-/-7--/----------------------------------------------------
Bb----------------------------------------------------------------------
F-----------------------------------------------------------------------



20160507

JULIE BERGAN RUDE TAB (ACOUSTIC COVER OF THE MAGIC! SONG)

Julie Bergan sings Rude by MAGIC!
Great acoustic cover with just 1 guitar and her brilliant voice.
See the TAB under the video.



JULIE BERGAN RUDE TAB (ACOUSTIC)

PDF >>

Intro

e-----------------------------------------------------------------------
B---------0---------------0---------------0-----------------------------
G-------6-----6---------8-----8---------9-----9-----9/11.---13.---4-----
D-----2-----------2---4-----------4---6-----------6---------------------
A---0-------------------------------------------------------------------
E-------------------7---------------9---------------9/11.---12.---4-----


e-------------------------------------------------0---------------------
B---------0---------------0-------------------0-------------------------
G-------6-----6---------8-----8-----------1-----------------------------
D-----2-----------2---4-----------4-----4-------------------------------
A---0---------------------------------2---------------------------------
E-------------------7---------------0-----------------------------------


Verse

e-----------------------------------------------------------------------
B-----------------------------------------------------------------------
G---6---------------8---------------9---------------4-------------------
D---2---------------4---------------6---------------2-------------------
A---0-------------------------------------------------------------------
E-------------------7---------------9---------------4-------------------