20170923

THE AVETT BROTHERS FAMOUS FLOWERS OF MANHATTAN TAB (COVER BY MATT)

Famous Flowers of Manhattan (The Avett Brothers) cover played by Matt
He uses standard tuning with Capo on the 1st fret. (lyrics included too)
Download the Guitar Pro 6, GP5 and PDF files below.



THE AVETT BROTHERS FAMOUS FLOWERS OF MANHATTAN TAB

GP5 + GP6 + PDF >>

Intro

e-----------------------------------------------------------------------
B---3-------0--------------0--------------------------------------------
G---------------------0-2----2--0-0-------0-----------------------------
D--------0---------0---------0---------0--------------------------------
A-----------------------------------------------------------------------
E---3---------3---------3---------3-------------------------------------


e-----------------------------------------------------------------------
B------0---------0---------0-----------0--------------------------------
G---2----2--0-2----2--0-2----2--0-2-------0-----------------------------
D--------0---------0---------0---------0--------------------------------
A-----------------------------------------------------------------------
E---3---------3---------3---------3-------------------------------------


e-----------------------------------------------------------------------
B-----------1---------1---------1----0----------------------------------
G------0---------0---------0--------------0-----------------------------
D--------2---------2---------2---------2--------------------------------
A---3---------3---------3---------3-------------------------------------
E-----------------------------------------------------------------------


20170917

VELVET REVOLVER WISH YOU WERE HERE TAB (LIVE INTRO SOLO BY SLASH)

Velvet Revolver - Wish You Were Here live version with a great Slash intro.
The intro solo is about 0:23 - 1:39 played on a double guitar.
Half step-down tuning.



VELVET REVOLVER WISH YOU WERE HERE TAB (INTRO SOLO)

PDF >>

 0:23 - 1:39

eb---10------10------10------10--------------10------10-----------------
Bb---10h12---10h12---10h12---10h12-----------10h12---10h12---10---------
Gb----------------------------------------------------------------------
Db----------------------------------------------------------------------
Ab----------------------------------------------------------------------
Eb----------------------------------------------------------------------


eb----------------------------------------------------------------------
Bb---10.--10--------10--------------------------------------------------
Gb---9.---9h11---11-----------------------------------------------------
Db-------------0--------------------------------------------------------
Ab----------------------------------------------------------------------
Eb----------------------------------------------------------------------


eb-------10------10-----------------------------------------------------
Bb-------10h12---10h12---10---10-------10---10---\----------------------
Gb-----------------------9----9h11-----9h11-9----\----------------------
Db---0------------------------------------------------------------------
Ab----------------------------------------------------------------------
Eb----------------------------------------------------------------------


20170912

THE DAKOTAS MAGIC CARPET TAB (INSTRUMENTAL GUITAR COVER BY JOHN MASON)


The Dakotas - Magic Carpet instrumental guitar cover by John Mason.
Download the Guitar Pro 6 tab and the PDF below.



THE DAKOTAS MAGIC CARPET TAB

GP5 + GP6 + PDF >>

Part 1

e---0-------------------------------0-----------------------------------
B---0-------------------------------0---------------2-------4-----------
G---0-------------------------------0---------------2-------4-----------
D---2-------------------------------2---------------2-------4-----------
A---2-------------------------------2---------------0-------2-----------
E---0-------------------------------0-----------------------------------


e-----------------------------------------------------------------------
B-----------------------------------------------------------------------
G---------------0---4---2-----------------------------------------------
D-------2-----2-----------------4-----0-2~------------------------------
A---2-------------------------------------------------------------------
E-----------------------------------------------------------------------


e-----------------------------------------------------------------------
B-----------------------------------------------------------------------
G---------------0---4---6~------7-----6-4~------------------------------
D-------2-----2---------------------------------------------------------
A---2-------------------------------------------------------------------
E-----------------------------------------------------------------------


20170906

WILLIE NELSON BANDERA TAB (RED HEADED STRANGER 1975)

Willie Nelson - Bandera nylon guitar solo parts from the album Red Headed Stranger
There is an intro solo part then later a little solo while the beautiful harp playing and at the end there is the outro solo part that's very similar to the intro solo.
Download the Guitar Pro and PDF files below.


WILLIE NELSON BANDERA TAB

GP5 + GP6 + PDF >>

Intro solo

e---1---2---3~------3-3-3~------3-3-3~------3-3-3~---2---1--------------
B-----------------------------------------------------------------------
G---2---3---4~------4-4-4~------4-4-4~------4-4-4~---3---2--------------
D-----------------------------------------------------------------------
A-----------------------------------------------------------------------
E-----------------------------------------------------------------------


e-----0-------------0-----------0-----------3---------------------------
B-------1---------0---0-------1---1-------3---3-------------------------
G---0-----0--------1----1------2----2----3-3----------------------------
D-----------2-------------2--2--------2---------------------------------
A-------------3--2----------0-------------------------------------------
E---------------0-----------------------3-------3-2---------------------


e-----------------------------------------------------------------------
B-------1~----1.-1~--3-----5\-1~-------1-1-1---3---5\-1-----------------
G-------------------------------------------------------0---------------
D-----------------------------------------------------------------------
A-----------------------------------------------------------------------
E---1-------------------------------------------------------------------


20170901

JOHNNY RIVERS ROCKIN PNEUMONIA TAB (GUITAR SOLO)


Michael Gregory plays a great cover Rockin Pneumonia guitar solo.
Originally the solo is played by Dean Parks from Johnny Rivers' band.
Download the TAB in Guitar Pro 6 and in PDF.



JOHNNY RIVERS ROCKIN PNEUMONIA SOLO TAB

GP5 + GP6 + PDF >>

e----------8------------------------------------------------------------
B-------------11(13)~~~-------------------------------------------------
G------/9---------------------------------------------------------------
D-----------------------------------------------------------------------
A-----------------------------------------------------------------------
E-----------------------------------------------------------------------


e-----------------------------------------------------------------------
B---8(10).--8.--8.--(10).--8.--8~---------------------------------------
G---------------------------------------7(9).--(9)(7)-p5----------------
D---------------------------------------------------------5~------------
A-----------------------------------------------------------------------
E-----------------------------------------------------------------------


e-----------------------------------------------------------------------
B-----------------------------------------------------------------------
G--------5.--5--------7(9)-----(7)--7.----------------------------------
D---5/7---------5--5----------------------------------------------------
A-----------------------------------------------------------------------
E-----------------------------------------------------------------------