20160823

DAVID LOCKE WONDERFUL TONIGHT TAB (FRET-KING COUNTRY SQUIRE)

David Locke plays an instrumental guitar cover of Wonderful Tonight.
The original song is by Eric Clapton.
Download the Guitar Pro Tab below.



DAVID LOCKE WONDERFUL TONIGHT TAB

PDF >>

Part 1

e-----------------------------------------------------------------------
B-------10(12)-(10)p8.-10~------10(12)-(10)p8.--------------------------
G-----7----------------------------------------9~-----------------------
D-----------------------------------------------------------------------
A-----------------------------------------------------------------------
E-----------------------------------------------------------------------


e-----------------------------------------------------------------------
B------10(12)-(10)p8.-10~----12~--/13~---15(17)---(15)~---\-------------
G---7.------------------------------------------------------------------
D-----------------------------------------------------------------------
A-----------------------------------------------------------------------
E-----------------------------------------------------------------------


e-----------------------------------------------------------------------
B------10(12)-(10)p8.-10~---------10(12)-(10)p8.------------------------
G------------------------------7.----------------9~---------------------
D-----------------------------------------------------------------------
A-----------------------------------------------------------------------
E-----------------------------------------------------------------------


20160818

BURNS ERNST WONDERFUL TONIGHT TAB (INSTRUMENTAL GUITAR COVER)

Burst Ernst plays a nice instrumental guitar cover of Wonderful Tonight.
Original tune by Eric Clapton.
See the TAB under the video.


BURNS ERNST WONDERFUL TONIGHT TAB


Intro

e-----------------------------------------------------------------------
B------10(12)-(10)--8--10~-----------10(12)-(10)--8---------------------
G---7-----------------------------7------------------9~-----------------
D-----------------------------------------------------------------------
A-----------------------------------------------------------------------
E-----------------------------------------------------------------------


e-----------------------5-/-7-/--8-/-12-\-10~---------------------------
B------10(12)-(10)--8---7-/-8-/-10-/-13-\-12~---------------------------
G---7-------------------------------------------------------------------
D-----------------------------------------------------------------------
A-----------------------------------------------------------------------
E-----------------------------------------------------------------------


e-----------------------------------------------------------------------
B------10(12)-(10)--8--10~-----------10(12)-(10)---8--------------------
G---7-----------------------------7------------------9~-----------------
D-----------------------------------------------------------------------
A-----------------------------------------------------------------------
E-----------------------------------------------------------------------


20160814

THE EAGLES HOTEL CALIFORNIA TAB (INSTRUMENTAL GUITAR DUET)

Nice and easy guitar cover played by a duet from Estonia. The uploader is crea1337.
The song is Hotel California by The Eagles.
See the TAB under the video.



THE EAGLES HOTEL CALIFORNIA INSTRUMENTAL TAB

PDF >>

Intro


G1
e-----------------------------------------------------------------------
B---------------------------5--7.-7h8p7p5-5h7~--------------------------
G------4--4h6p4p3--4--6--7----------------------------------------------
D-----------------------------------------------------------------------
A-----------------------------------------------------------------------
E-----------------------------------------------------------------------

G2 (Capo on 7th)
e---2-------------------------------------------------------------------
B---0-------------------------------------------------------------------
G---0-------------------------------------------------------------------
D---2-------------------------------------------------------------------
A---2-------------------------------------------------------------------
E---0-------------------------------------------------------------------



G1
e-----------------------------------------------------------------------
B------------3--2-------------------------------------------------------
G------2--4-----------2--2h4--2-----------------------------------------
D------------------4-------------4\2-0h2~-------------------------------
A-----------------------------------------------------------------------
E-----------------------------------------------------------------------

G2 (Capo on 7th)
e---0-------------------------------------------------------------------
B---3-------------------------------------------------------------------
G---2-------------------------------------------------------------------
D---4-------------------------------------------------------------------
A---0-------------------------------------------------------------------
E-----------------------------------------------------------------------


20160804

THE ROLLING STONES I'M FREE TAB (GUITAR SOLO)


There is a little guitar solo in the legendary Rolling Stones song - I'm Free.
It starts about 1:10 in this video and sounds so cool ...
See the SOLO TAB under the video.



THE ROLLING STONES I'M FREE SOLO TAB


 ~ 1:10

e-----------------------------------------------------------------------
B-----------------------------------------------------------------------
G---0h2----2----0-----0--------------------0--2p0----0----0h2.----------
D------------------2-----2p0-----------0h2--------2---------------------
A----------------------------3------------------------------------------
E-----------------------------------------------------------------------


e-----------------------------------------------------------------------
B--------1-----1--------------------------------------------------------
G---0h2-----2--0---------0h2-p0--2p0----0----0h2------------------------
D------------------------------------2----------------------------------
A-----------------------------------------------------------------------
E-----------------------------------------------------------------------


e-----------------------------------------------------------------------
B-----------------------------------------------------------------------
G---0-----0---------------2p0----0--2p0------0--------------------------
D------2-----2-------2--------2---------2-------------------------------
A---------------3-------------------------------------------------------
E-----------------------------------------------------------------------


20160803

SANTANA THE GAME OF LOVE FT. MICHELLE BRANCH TAB (GUITAR SOLO)

Carlos Santana and Michelle Branch play The Game of Love.
There is a great Santana guitar solo about 2:20.
See the Solo TAB under the video.



SANTANA THE GAME OF LOVE SOLO TAB

PDF >>

 ~ 2:20

e-----------------------------------------------------------------------
B------15.-------17(19)-----(19)(19)(19)(19)(19)(19)(19)(19)(19)(19)(19)
G---/16-----------------------------------------------------------------
D-----------------------------------------------------------------------
A-----------------------------------------------------------------------
E-----------------------------------------------------------------------


e-----------------------------------------------------------------------
B---(19)(19)(19)(19)(19)---17(19)-----(19)(19).--17.--15.---------------
G-----------------------------------------------------------------------
D-----------------------------------------------------------------------
A-----------------------------------------------------------------------
E-----------------------------------------------------------------------


e--------------------------------------15.--14h15~----14----------------
B---17-15~----15~--------h17.------------------------------15.----------
G-----------------------------------------------------------------------
D-----------------------------------------------------------------------
A-----------------------------------------------------------------------
E-----------------------------------------------------------------------


EAST 17 EACH TIME TAB (MAIN GUITAR RIFF)

There is a great guitar intro in Each Time by East 17.
The same lick goes through almost the entire song.
See the TAB under the video.



EAST 17 EACH TIME TAB

PDF >>


e-----------------------------------------------------------------------
B---x--------4---------------------------4------------------------------
G---x-----4---------------------------4-----4---------------------------
D---x--4--------4-------4h6p4------4---------------4h6p4----------------
A---x--2-----------2h4/6-----6.----------------4h6------6.--------------
E-------------------------------4---------------------------------------


e-----------------------------------------------------------------------
B---------7--7--------7----------------7-----x-x-4h5-5------------------
G------6-----------6--6h8p6---------4-----4--x-x-4---4------------------
D---------------8--8-------8.----6-----------x-x-4h6-6------------------
A---6-------------------------7-----------------------------------------
E-----------------------------------------------------------------------


e-----------------------------------------------------------------------
B---x--------4---------------------------4------------------------------
G---x-----4---------------------------4-----4---------------------------
D---x--4--------4-------4h6p4------4---------------4h6p4----------------
A---x--2-----------2h4/6-----6.----------------4h6------6.--------------
E-------------------------------4---------------------------------------


20160730

IVO CABRERA BLANK SPACE TAB (ELECTRIC GUITAR COVER OF TAYLOR SWIFT'S SONG)

Ivo Cabrera plays Blank Space by Taylor Swift.
Great instrumental guitar cover.
See the TAB under the video.



IVO CABRERA BLANK SPACE TAB


Part 1

e-----------------------------------------------------------------------
B-----------------------------------------------------------------------
G---------10-10.--10-10.--10-10.--10~----12/14--14-14.-12.-12.-10h12----
D-----------------------------------------------------------------------
A-----------------------------------------------------------------------
E-----------------------------------------------------------------------


e-----------------------------------------------------------------------
B-----------------------------------------------------------------------
G---------10-10.--10-10.--10-10.--10~----12/14--14-14.-12.-12.-10h12----
D---12------------------------------------------------------------------
A-----------------------------------------------------------------------
E-----------------------------------------------------------------------


e-----------------------------------------------------------------------
B-----------------------10--10-------------------------10--10-----------
G------10--10~-10---------------------10--10~-10------------------------
D---8------------10-10-------------8------------10-10-------------------
A-----------------------------------------------------------------------
E-----------------------------------------------------------------------


20160724

IVO CABRERA THINKING OUT LOUD TAB (INSTRUMENTAL GUITAR COVER OF ED SHEERAN'S SONG)

Ivo Cabrera plays Thinking Out Loud by Ed Sheeran.
Great instrumental guitar cover.
See the TAB under the video.



IVO CABRERA THINKING OUT LOUD TAB


e-----------------------------------------------------------------------
B-----------------------------------------------------------------------
G--------------2-2h4-2--------------------------------------------------
D------------4---------4-4---2---2---4----------------------------------
A------------------------------5-------2-5------------------------------
E-----------------------------------------------------------------------


e-----------------------------------------------------------------------
B-----------------------------------------------------------------------
G--------------2-2h4-2--------------------------------------------------
D------------4---------4-4---2------------------------------------------
A------------------------------5-5--------------------------------------
E-----------------------------------------------------------------------


e-----------------------------------------------------------------------
B-----------------------------------------------------------------------
G--------------2-2h4-2--------------------------------------------------
D------------4---------4-4---2---2---4----------------------------------
A------------------------------5-------2-5------------------------------
E-----------------------------------------------------------------------