20141026

MIRAI NIKKI KUUSOU MESOROGIWI TAB (GUITAR COVER BY KIKAHO)

Mirai Nikki Kuusou Mesorogiwi covered and arranged by KiKaHo.
Great headbanger riffs in half-step down tuning and a brilliant solo.
See the TAB under the video.



MIRAI NIKKI KUUSOU MESOROGIWI TAB                                                    Print PDF


#1

D#----------------------------------------------------------------------
A#----------------------------------------------------------------------
F#----------------------------------------------------------------------
C#----------------------------------------------------------------------
G#----------------------------------------------------------------------
D#-0-0-3-0-0-5-0-6-0-5-0-3-0-0-5---0-0-3-0-0-5-0-0-6-0-0-5-0-0-3--------
   x x   x x   x   x   x   x x     x x   x x   x x   x x   x x

D#----------------------------------------------------------------------
A#----------------------------------------------------------------------
F#----------------------------------------------------------------------
C#----------------------------------------------------------------------
G#----------------------------------------------------------------------
D#-0-0-3-0-0-5-0-6-0-5-0-3-0-0-5---0-0-3-0-0-5-0-0-6-0-0-5-0-0-3--------
   x x   x x   x   x   x   x x     x x   x x   x x   x x   x x


#2

D#----------------------------------------------------------------------
A#----------------------------------------------------------------------
F#----------------------------------------------------------------------
C#----------------------------------------------------------------------
G#-----------------5----------------------------------------------------
D#-0---7---6---7-----8.--7---7-6---0---7---6---7---8.------7.-----------

20141019

BRITTNI PAIVA LIGHTS UKULELE TAB


Brittni Paiva plays Lights with a nice Ukulele and a Boss ME-70 pedal.
She uses "low G standard" tuning.
TAB under the video.



BRITTNI PAIVA LIGHTS UKULELE TAB                                                          Print PDF

Loop 1

A-3---x-3---x-3---x-3---x-3-3-3-3-2---x-2---x-2---x-2---x-2-2-2-2-------
E-----------------------------------------------------------------------
C-----------------------------------------------------------------------
G-----------------------------------------------------------------------


A-3---x-3---x-3---x-3---x-3-3-3-3-3---x-3---x-3---x-3---x-3-3-3-3-------
E-----------------------------------------------------------------------
C-----------------------------------------------------------------------
G-----------------------------------------------------------------------


Loop 2

A-----------------------------------------------------------------------
E-------5-----------------5-------------3-----------------3-------------
C-------------4---------------4---------------2---------------0---------
G-2-------------------2-----------0-------------------0-----------------

20141015

UNCHARTED 3 DRAKE'S DECEPTION TAB (GUITAR COVER BY ASTRAVEX)

AstraVex plays a lead guitar cover of the Uncharted 3 theme.
Use distortion and delay as much as you can.
See the TAB under the video.



UNCHARTED 3 DRAKE'S DECEPTION TAB                                                  Print PDF

e-----------------------------------------------------------------------
B--------------10/12~-----10~---------10-8-10/12~------------\\\--------
G-9-11-12~--------------------------------------------------------------
D-----------------------------------------------------------------------
A-----------------------------------------------------------------------
E-----------------------------------------------------------------------


e-----------------------------------------------------------------------
B-12(13)--------------12---10---8---10/12-10~---------------------------
G-----------------------------------------------------------------------
D-----------------------------------------------------------------------
A-----------------------------------------------------------------------
E-----------------------------------------------------------------------


e-17-19-19(20)--------19---17---15---17/19-17~--------------------------
B---------------------------------------------------15~------17~--------
G-----------------------------------------------------------------------
D-----------------------------------------------------------------------
A-----------------------------------------------------------------------
E-----------------------------------------------------------------------

20141010

SUPERCELL KIMI NO SHIRANAI MONOGATARI TAB (FINGERSTYLE GUITAR COVER BY THE FIREBLITZ)

Nice fingerstyle guitar cover played by The Fireblitz.
The song is called Kimi No Shiranai Monogatari by Supercell.
TAB under the video.



SUPERCELL KIMI NO SHIRANAI MONOGATARI TAB                                  Print PDF

Part 1

e-0-0-0-0---0-0-0-0-0-------------0-0-0-0-0---0-0-----------------------
B-2-------------------3-2---0-----0-------0-------5-5-3-2---------------
G-2-----------------------------2-1-------1-----------------4-----------
D-2---------------0-----------------------------------------------------
A-0---------------------------------------------------------------------
E---------------------------------0---------------2-------2---0---------


e---------------------------------0-------4-------5---4---5---7---------
B---------2-------0-------3-------0---------------7---------------------
G-2-------------------2-----------1---1-----------7---------------------
D-----2-----------0-----------0-----------------------------------------
A-0-----------0---------------------------------------------------------
E---------------------------------0-----------0---0---------0-----------


Part 2

e-5-------0---------------0-----------------------------------5---------
B-3-----------3---2-----------3---2-------5---3---2---3---5-------------
G-2---2-----2---2-----1-----1---1-----2-----------------2---------------
D-0-----0---------------------------------------------------------------
A-------------------------------------------------0---------0-----------
E-----------------0-----0---------2-----2---2---2-----------------------

20141005

KENNY CHESNEY ANYTHING BUT MINE SOLO TAB

There is a brilliant lead guitar part at 3:16 in Anything But Mine by Kenny Chesney.
The solo has been transcribed according to the official album version.
See the TAB under the video.



KENNY CHESNEY ANYTHING BUT MINE SOLO TAB                                  Print PDF


e--------------------12------------------------9------------------------
B-12(14)----------------(14)---(12)p9------------12-9-------------------
G-------------------------------------11(13)----------(13)(11)p9~-----\-
D-----------------------------------------------------------------------
A-----------------------------------------------------------------------
E-----------------------------------------------------------------------


e-----------------------------------------------------------------------
B-----------------12h14p12----------------12----------------------------
G------9h11-11/13----------13\11p9-11(13)----(13)(11)~------------------
D-9h11------------------------------------------------------------------
A-----------------------------------------------------------------------
E-----------------------------------------------------------------------


e-----------------12-----------12-----------12-----------12-----------12
B--------------12-----------12-----------12-----------12-----------12---
G-/14-14(16)---------14(16)-------14(16)-------14(16)-------14(16)------
D-----------------------------------------------------------------------
A-----------------------------------------------------------------------
E-----------------------------------------------------------------------

MY HEART WILL GO ON TAB (INSTRUMENTAL COVER BY IOXSILAN)

Ioxsilan plays a very nice instrumental cover of My Heart Will Go On (by Celine Dion).
He is using a legendary Fender Stratocaster with a tremolo bar.
Clean sound with a little reverb.
See the TAB under the video.


IOXSILAN MY HEART WILL GO ON TAB                                                         Print PDF

Part 1

e--------<12>--------------------------<7>------------------------------
B-<12>---------------------------------------<7>------------------------
G-----------------------------------------------------------------------
D-----------------------------------------------------------------------
A-----------------------------------------------------------------------
E-----------------------------------------------------------------------


e-----------------------------------------------------------------------
B-5-------------4-/-5----------5---------7-h-9-----(10)(9)p7------------
G-----------------------------------------------------------------------
D-----------------------------------------------------------------------
A-----------------------------------------------------------------------
E-----------------------------------------------------------------------


e-----------------------------------------------------------------------
B-5-------------4-(5)-(4)-----------------------------------------------
G------------------------------4-/-6------------------------------------
D-----------------------------------------------------------------------
A-----------------------------------------------------------------------
E-----------------------------------------------------------------------

20141002

SOMEWHERE OVER THE RAINBOW UKULELE TAB (FINGERSTYLE COVER BY GORAN PAUK)

Goran Pauk plays a nice fingerstyle ukulele cover of Somewhere over the rainbow.
He is using 2 step-down tuning from the low G standard. (That is D#G# C F)
See the TAB under the video.



SOMEWHERE OVER THE RAINBOW UKULELE TAB                                  Print PDF


Main Part

F---0---------------8---------------7-----3--5------7-----8-------
C------1-----1---------5-----5---------0--5--5---------0-----5----
G#--------0---------------5---------0-----5--5------0-------------
D#--2---------------5-------------------------------------5-------


F---1---------------5---------------3---------------3-------------
C------1-----1---------6-----6---------5-----5---------5-----5----
G#--------2---------------5---------5-----5---------5-----5-------
D#--3---------------7---------------------------------------------


F---1---------------1---------------0---------------0-----1-------
C------3-----3---------3-----3------------1--3--------------------
G#--------2---------------2------------0---------------0-----0----
D#--0---------------0---------------2---------------2-------------

20140929

NAGAOKA RYOSUKE PETROLZ TAB (FROM SLEEPERS FILM)

Nagaoka Ryosuke sings Petrolz from Sleepers film with a single acoustic guitar.
There is a great (however not note-for-note) cover that may help you too.
It is played in half-step down tuning.
See the TAB under the video.



NAGAOKA RYOSUKE PETROLZ TAB                                                              Print PDF


Part 1

D#-----------4-----4-----4---4-----5-----5-------5---------5------------
A#-5-------x-5---x-5-----5-x-5---x-5-----5-x-x-x-5h7-5-----5---x-x------
F#-6-------x-6---x-6-----6-x-6---x-6-----6-x-x-x-------6---6---x-x------
C#-6-------x-6---x-6-----6-x-6---x-7-----7-x-x-x---------7-7---x-x------
G#-x-------x-----x-x-------x-----x-x-----x-x-x-x-----------x---x-x------
D#-5-----------x---5-----------x---7-----7-----------------7------------


D#-------4-------4-----------------------------------4---4---4----------
A#-4-----4-x-x-x-4-x-----------4-x-4-----4-x-x-x-5-x-4h5-4---4-----x----
F#-4-----4-x-x-x-4-x-----------4-x-4-----4-x-x-x-4-x-------6---6-4-x----
C#-4-----4-x-x-x-4-x-----4-----4-x-x-----x-x-x-x-x-x---------------x----
G#-x-------x-x-x---x-4h6---6-6---x-4-----4-x-x-x-4-x--------------------
D#-4--------------------------------------------------------------------


D#-4-----4-------4---4-4---5-7-5-x-5-----5-----5------------------------
A#-5-----5-x-x-x-5-x-5-5-x-5-5-5-x-5-----5-x-x-5h7-5---5---5---x-x------
F#-6-----6-x-x-x-6-x-6-6-x---------6-----6-x-x-----4h6-4---4---x-x------
C#-6-----6-x-x-x-6-x-6-6-x---------7-----7-x-x-----------7---7-x-x------
G#-x-----x-x-x-x-x-x-x-x-x---------x-----x-x-x-----------------x-x------
D#-5-----5-------5---5-5-----------7-----7------------------------------