20140929

NAGAOKA RYOSUKE PETROLZ TAB (FROM SLEEPERS FILM)

Nagaoka Ryosuke sings Petrolz from Sleepers film with a single acoustic guitar.
There is a great (however not note-for-note) cover that may help you too.
It is played in half-step down tuning.
See the TAB under the video.



NAGAOKA RYOSUKE PETROLZ TAB                                                              Print PDF


Part 1

D#-----------4-----4-----4---4-----5-----5-------5---------5------------
A#-5-------x-5---x-5-----5-x-5---x-5-----5-x-x-x-5h7-5-----5---x-x------
F#-6-------x-6---x-6-----6-x-6---x-6-----6-x-x-x-------6---6---x-x------
C#-6-------x-6---x-6-----6-x-6---x-7-----7-x-x-x---------7-7---x-x------
G#-x-------x-----x-x-------x-----x-x-----x-x-x-x-----------x---x-x------
D#-5-----------x---5-----------x---7-----7-----------------7------------


D#-------4-------4-----------------------------------4---4---4----------
A#-4-----4-x-x-x-4-x-----------4-x-4-----4-x-x-x-5-x-4h5-4---4-----x----
F#-4-----4-x-x-x-4-x-----------4-x-4-----4-x-x-x-4-x-------6---6-4-x----
C#-4-----4-x-x-x-4-x-----4-----4-x-x-----x-x-x-x-x-x---------------x----
G#-x-------x-x-x---x-4h6---6-6---x-4-----4-x-x-x-4-x--------------------
D#-4--------------------------------------------------------------------


D#-4-----4-------4---4-4---5-7-5-x-5-----5-----5------------------------
A#-5-----5-x-x-x-5-x-5-5-x-5-5-5-x-5-----5-x-x-5h7-5---5---5---x-x------
F#-6-----6-x-x-x-6-x-6-6-x---------6-----6-x-x-----4h6-4---4---x-x------
C#-6-----6-x-x-x-6-x-6-6-x---------7-----7-x-x-----------7---7-x-x------
G#-x-----x-x-x-x-x-x-x-x-x---------x-----x-x-x-----------------x-x------
D#-5-----5-------5---5-5-----------7-----7------------------------------

20140921

MICHAEL LUCARELLI HIE FOLGET EIN WELSHER TANZ TAB (HANS NEUSIEDLER)

Michael Lucarelli plays his Loriente Cedar guitar now in Moab (Utah).
The song is called Hie Folget Ein Welsher Tanz by Hans Neusiedler.
Capo on the 1st fret, standard tuning.
See the TAB undet the video.


MICHAEL LUCARELLI HIE FOLGET EIN WELSHER TANZ TAB                  Print PDF


Part 1

e-1-0-1-3-1-0-3-1-0-------0-3-1-0-1-0---------------------0---0---------
B-------------------------------------3-1---3-2-0-2-0-2-3-2---2---------
G-2-------2-------0---0-2-0-------2-------2-------2---------------------
D-0-------0---------4-------------0-------------------------------------
A-----------------3-------3---------------0-------0-------0-------------
E-----------------------------------------------------------------------


e-1-0-1-3-1-0-3-1-0-------0-3-1-0-1---0---------------------------------
B---------------------------------------3-2---3-2-3---3-2-3---3---------
G-2-------2-------0---0-2-0-------2-------2-------2-2-----2---2---------
D-0-------0---------4-------------0---------------0-------0-------------
A-----------------3-------3---------------0-----------------------------
E-----------------------------------------------------------------------


e-1-0-1-3-1-0-3-1-0-------0-3-1-0-1-0---------------------0---0---------
B-------------------------------------3-1---3-2-0-2-0-2-3-2---2---------
G-2-------2-------0---0-2-0-------2-------2-------2---------------------
D-0-------0---------4-------------0-------------------------------------
A-----------------3-------3---------------0-------0-------0-------------
E-----------------------------------------------------------------------

20140918

ONCE UPON A TIME IN MEXICO TAB (SPANISH GUITAR - EL MARIACHI)

The YouTube video title says: Once upon a time in Mexico - Spanish guitar.
You can hear 2 classical guitar lines at the same time. Nice melodies played in E minor.
See the TAB under the video.


ONCE UPON A TIME IN MEXICO TAB  (EL MARIACHI)                              Print PDF

G1
e-----------------------------------------------------------------------
B-----------------------------------------------------------------------
G---------5-4-2-4-5---------------------4-4-4-2-2-2h4-------------------
D-----------------------------------------------------------------------
A-----------------------------------------------------------------------
E-----------------------------------------------------------------------

G2
e-----------------0-------3p2p0---0---------------0-------3-2-0---------
B-------------1-------------------------------0-------------------------
G---------2-----------2-------------------0-----------0-----------------
D-----2-------------------------------2---------------------------------
A-0---------------------------------------------------------------------
E---------------------------------0-------------------------------------


G1
e---------------------------------------0-0-2-3/5-7---------------------
B-----------------------------------------------------------------------
G------2-2--------4-----------------------------------------------------
D-----------------------------------------------------------------------
A-----------------------------------------------------------------------
E-----------------------------------------------------------------------

20140914

NICKEL CREEK 21ST OF MAY TAB


There is a nice country guitar intro played in 21st of May by Nickel Creek.
The extreme part goes until 0:42. Capo on the 3rd fret, standard tuning.
See the TAB under the video.



NICKEL CREEK 21ST OF MAY TAB                                                                 Print PDF


e-3/5-3-----------------------------------------------------------------
B-------4\3-------------------------------------------------------------
G-----------------------------------------------------------------------
D-----------------------------------------------------------------------
A-----------------------------------------------------------------------
E-----------------------------------------------------------------------


e-----------------------------------------------------------------------
B-1-----1---------------------------------------0-1-------------1-------
G---2-0---2-0-----------------------------0-1-2---------------0---------
D-------------2-1-0-----------------0-1-2-----------------0h2-----------
A---------------------------0-1-2-3-------------------------------------
E-------------------0-1-2-3---------------------------------------------


e-------0-------0-------------------------------------------------------
B-----1-------1---------0-------0-----1---------1-------1-----1---------
G-0h2-----2p0---------0-------0-------0-------0-------0-------0---------
D-----------------0h2-----1p0---------2-----2-------2-----0h2-----------
A---------------------------------3---------------3---------------------
E-----------------------------------------3-----------------------------

20140908

JULIETTE VALDURIEZ LOST PARADISE TAB

Lost Paradise played by Juliette Valduriez.
Incredible lead guitar stuff that will definitely kill you at 0:35.
... so just don't mess with this blondie ...
See the TAB under the video.


JULIETTE VALDURIEZ LOST PARADISE TAB                                             Print PDF

Clean part

e---------------------------------------------------0-----0---0-0-------
B-------------------------5---5-0---------3---------2-----2---2-2-------
G---------0---------------5---5-0-----0-0---0-2-----2-2---2---2-2-------
D-------4-----------------5---5-0---4---------2-------2---2---2-2-------
A-----7-------3-------3---3---3---5-----------0-------0---0---0-0-------
E-0---------------------------------------------------------------------


e---------------------------------------------------0-----0---0-0-------
B-------------------------5---5-0---------3---------2-----2---2-2-------
G---------0---------------5---5-0-----0-----0-2-----2-2---2---2-2-------
D-------4-----------------5---5-0---4---4-----2-------2---2---2-2-------
A-----7-------3-------3---3---3---5-----------0-------0---0---0-0-------
E-0---------------------------------------------------------------------


e---------------------------------------------------0-----0---0-0-------
B-------------------------5---5-0---------3---------2-----2---2-2-------
G---------0---------------5---5-0-----0-----0-2-----2-2---2---2-2-------
D-------4-----------------5---5-0---4---4-----2-------2---2---2-2-------
A-----7-------3-------3---3---3---5-----------0-------0---0---0-0-------
E-0---------------------------------------------------------------------

20140831

MINAMI SPARKING SLASH TAB (COVER BY STEINBERCO)


Time to start rocking now ...
Sparking Slash guitar cover played by Steinberco.
See TAB of the lead part under the video.



MINAMI SPARKING SLASH TAB                                                                    Print PDF

Part 1

e-------------------------------------2---------------/2----------------
B-2----------------------------2------2-2----------------5-2------------
G-4(6)-------------------------4(6)-----4(6)-----------------5-4-2~-----
D-----------------------------------------------------------------------
A-----------------------------------------------------------------------
E-----------------------------------------------------------------------
                                                         x x x x

e-----------------------------------------------------------------------
B--------------------------------------------------2-4---4(6)---4-2-----
G-----4(6)---4(6)(4)p2-4-2~--------------------2-4------------------6~--
D-4--------------------------4---4~--------2-4--------------------------
A----------------------------------------4------------------------------
E-----------------------------------------------------------------------
                                           x x x x x

e-----------------------------------------------------------------------
B-12(14)------------12(14)---12-10-12-10-\------------------------------
G-----------------------------------------------------------------------
D-----------------------------------------------------------------------
A-----------------------------------------------------------------------
E-----------------------------------------------------------------------

20140828

BENISE SANTA BARBARA TAB


Benise - Santa Barbara - cool spanish guitar music.
See the TAB under the video.
www.benise.com


BENISE SANTA BARBARA TAB                                                                    Print PDF

 Verse 1
 
  F#m                Bm
e-----------------------------------------------------------------------
B-----------------------------------------------------------------------
G-----------------------------------------------------------------------
D-----------------------------------------------------------------------
A-----------------------------------------------------------------------
E-----------------------------------------------------------------------

              E                                 A
e-----------------------------------------------------------------------
B-----------------------------------------------------------------------
G-----1-2-4---4/6-------------7---6.--4h6p4---2-2-----------------------
D-2/4-------------------------------------------------------------------
A-----------------------------------------------------------------------
E-----------------------------------------------------------------------

  E/G#                    F#m                 Bm
e-----------------------------------------------------------------------
B-3/5-3-3-----2---3-2h3p2-----------------------------------------------
G---------------------------4-2-----------------2---4---4/6-4-----------
D-----------------------------------------2---4-------------------------
A-------------------------------------2/4-------------------------------
E-----------------------------------------------------------------------

20140818

SHADOWY MEN ON A SHADOWY PLANET EGYPT TEXAS TAB

 ... and the original Fender Stratocaster sound in Egypt Texas played by Brian Conelly.
The name of the band is Shadowy Men on a Shadowy Planet. The key is A minor ...
See the TAB under the video.


SHADOWY MEN ON A SHADOWY PLANET EGYPT TEXAS TAB               Print PDF


Part 1

e-----------------------------------------------------------------------
B-----------------------------------------------------------------------
G-----------------------------------------------------------------------
D-----------------------------------------------------------------------
A-0---2h3-3---3---3-2~--------------0-3-2---3---3/5.---0-3-2------------
E--------------------------------------------------------------3--------


e-----------------------------------------------------------------------
B-----------------------------------------------------------------------
G-----------------------------------------------------------------------
D-----2-2-2-2-2-2-2-1~--------------0-----------0-0-2-2-3-3-2-2---------
A-0---3-3-3-3-3-3-3-2~----------------3-2---3---------------------------
E-----------------------------------------------------------------------


e------------------------------------------5---5-5-4-5-4----------------
B----------5---5-5-4-5-4~------4-4-----6-----------------6-5-6-5--------
G------5---------------------------7-7---7-----------------------5------
D-/7-----7--------------------------------------------------------------
A-----------------------------------------------------------------------
E-----------------------------------------------------------------------