20160724

IVO CABRERA THINKING OUT LOUD TAB (INSTRUMENTAL GUITAR COVER OF ED SHEERAN'S SONG)

Ivo Cabrera plays Thinking Out Loud by Ed Sheeran.
Great instrumental guitar cover.
See the TAB under the video.



IVO CABRERA THINKING OUT LOUD TAB


e-----------------------------------------------------------------------
B-----------------------------------------------------------------------
G--------------2-2h4-2--------------------------------------------------
D------------4---------4-4---2---2---4----------------------------------
A------------------------------5-------2-5------------------------------
E-----------------------------------------------------------------------


e-----------------------------------------------------------------------
B-----------------------------------------------------------------------
G--------------2-2h4-2--------------------------------------------------
D------------4---------4-4---2------------------------------------------
A------------------------------5-5--------------------------------------
E-----------------------------------------------------------------------


e-----------------------------------------------------------------------
B-----------------------------------------------------------------------
G--------------2-2h4-2--------------------------------------------------
D------------4---------4-4---2---2---4----------------------------------
A------------------------------5-------2-5------------------------------
E-----------------------------------------------------------------------


20160717

ELLERT NORDMARK HOPELESSLY DEVOTED TO YOU TAB (INSTRUMENTAL GUITAR COVER)

Ellert Nordmark plays Olivia Newton John's Hopelessly Devoted To You.
Very nice instrumental guitar cover.
See the TAB under the video.


ELLERT NORDMARK HOPELESSLY DEVOTED TO YOU TAB

PDF >>

Part 1

e-----------------------------------------------------------------------
B---6---5-6---6/8-6---5~-------6---5-6---8-5~---------------------------
G-----------------------------------------------------------------------
D-----------------------------------------------------------------------
A-----------------------------------------------------------------------
E-----------------------------------------------------------------------


e-----------------------------------------------------------------------
B---6---5-6---6/8-6---5-6---6/8-5~--------------------------------------
G-----------------------------------------------------------------------
D-----------------------------------------------------------------------
A-----------------------------------------------------------------------
E-----------------------------------------------------------------------


Part 2

e-----------------------------------------------------------------------
B-----------------------------------------------------------------------
G----------------------------1-1-1h2------------------------------------
D-----2~---------2--2~---------------4~---------------------------------
A---4----------4--4-----------------------------------------------------
E-----------------------------------------------------------------------


20160710

THE ANIMALS BOOM BOOM TAB (INTRO + VERSE)

The Animals play a great version of John Lee Hooker's  Boom Boom.
Use a CAPO on the 1st fret to get the original key of the song.
See the TAB of the intro and the verse part under the video.



THE ANIMALS BOOM BOOM TAB

PDF >>

Intro

e-----------------------------------------------------------------------
B--------3--------------------------------------------------------------
G---3/4----2--0--------------------------0--3-2--0----------------------
D---------------2--0-2-----------------2-----------2--0-2---------------
A-----------------------------------------------------------------------
E-----------------------------------------------------------------------


e-----------------------------------------------------------------------
B--------3--------------------------------------------------------------
G---3/4----2--0--------------------------0--3-2--0----------------------
D---------------2----------------------2-----------2--0-2---------------
A------------------2-0--------------------------------------------------
E-----------------------------------------------------------------------


e-----------------------------------------------------------------------
B--------3--------------------------------------------------------------
G---3/4----2--0-----4-------------------------0---0---------------------
D---------------2------------------------0--2---------2-----------------
A--------------------------------------2--------------------------------
E-----------------------------------------------------------------------



20160705

BURNS ERNST VISIONS TAB (CLIFF RICHARD INSTRUMENTAL COVER)

Burns Ernst plays Visions by Cliff Richard.
Very nice instrumental guitar cover.
See the TAB under video.


BURNS ERNST VISIONS TAB

PDF >>

Part 1

e-----------------------------------------------------------------------
B-----------------------------------------------------------------------
G-----------------------------------------------------------------------
D----------------------------4-------4/--7~-----------------------------
A---4--4-------4-2~--------------5--------------------------------------
E-----------------------------------------------------------------------


e-----------------------------------------------------------------------
B-----------------------------------------------------------------------
G-----------------------------------2---1-------------------------------
D---4--0--------2---------------1----------4-2--------------------------
A------------------4--------2-------------------------------------------
E-----------------------------------------------------------------------


e-----------------------------------------------------------------------
B-----------------------------------------------------------------------
G-----------------------------------------------------------------------
D---0-------------------------------------------------------------------
A-----4---4~------4-2------2h4--2-0~------------------------------------
E-----------------------------------------------------------------------


20160625

BLAZE FOLEY CLAY PIGEONS TAB (RARE LIVE)


Blaze Foley sings Clay Pigeons on the front porch.
He is using standard tuning with Capo on the 2nd fret.
See the TAB under the video.



BLAZE FOLEY CLAY PIGEONS TAB

PDF >>

Intro                  Capo on the 2nd

e-----------------------------------------------------------------------
B---0---------0-----1p0-------0-----1---------1-----3p1-------1---------
G---------0---------------2---------------0---------------0-------------
D-------0-------0-------0-------0-------2-------2-------2-------2p0-----
A-----------------------------------3---------------3-------------------
E---3-------3-------3-------3---------------3---------------3-----------


e-------------------------------------------------3---------------------
B-------------0-----------3-------------------0---------------0---------
G---------0-------2-----------2---0-------------------------------0-----
D-------0-------0-------0-------0-------0-------0-------0-------0-------
A-----------------------------------------------------------------------
E---3-------3-------2-------2-------3-------3-------3-------3-----------


Verse

e-----------------------------------------------------------------------
B-------------0---------------0-----1---------1---------------1---------
G-----------------0---------------0-------0-------0---------------0-----
D-------0-------0-------0-------0-------2-------2-------2-------2-------
A-----------------------------------3---------------3-------------------
E---3-------3-------3-------3---------------3---------------3-----------



20160620

CHRIS BRANIFF NIGHT TRAIN TAB (THE YOUNG SHADDOW)

Chris Braniff plays Night Train with his Fender Stratocaster.
Very nice instrumental guitar playing.
See the TAB under the video.



CHRIS BRANIFF NIGHT TRAIN TAB


Part 1

e-----------------------------------------------------------------------
B-----------------------------------------------------------------------
G-----2-4-5---------------------------5---4-----------------------------
D---2-----------------2---3---------------------------0---2-------------
A-----------------------------------------------------------------------
E-----------------------------------------------------------------------


e-----------------------------------------------------------------------
B-----------------------------------------------------------------------
G---------2-------------------------------------------------------------
D-----2-5-----5---3---2---2-------1---2/4---2---------------------------
A---3-------------------------------------------------------------------
E-----------------------------------------------------------------------


e-----------------------------------------------------------------------
B-----------------------------------------------------------------------
G-----2-4-5---------------------------5---4-----------------------------
D---2-----------------2---3---------------------------0---2-------------
A-----------------------------------------------------------------------
E-----------------------------------------------------------------------


20160612

JESSE COOK SHAKE TAB


Jesse Cook plays his original song "Shake" Very nice flamenco guitar playing.
More guitar lines are recorded at the same time - that's why it sounds so complex.
See the TAB of the main solo parts under the video.



JESSE COOK SHAKE TAB


Intro

    Gm                               Cm
e---3--------------------------------3----------------------------------
B---3--------------------------------4----------------------------------
G---3--------------------------------5---5-5-5---5----------------------
D---5---5-5-5---5--------------------5---5-5-5---5----------------------
A---5---5-5-5---5--------------------3---3-3-3---3----------------------
E---3---3-3-3---3-------------------------------------------------------

    Gm                               A               Ab
e---3--------------------------------5---------------4------------------
B---3--------------------------------5---------------4------------------
G---3--------------------------------6---------------5------------------
D---5---5-5-5---5--------------------7---7-7-7-------6---6-6-6----------
A---5---5-5-5---5--------------------7---7-7-7-------6---6-6-6----------
E---3---3-3-3---3--------------------5---5-5-5-------4---4-4-4----------


Main Melody

e-----------------------------------------------------------------------
B-----------------------------------------------------------------------
G---------------3---3/--7---7---7p5-7---8~------\-----------------------
D-------5---5-----------------------------------------------------------
A---5-------------------------------------------------------------------
E-----------------------------------------------------------------------


20160602

DR VIOSSY BOHEMIAN RHAPSODY FOR SOLO GUITAR TAB (QUEEN)

Dr. Viossy plays Bohemian Rhapsody for solo guitar. Brilliant fingerstyle arrangement!
It's possible to play this piece with a normal 6 string guitar as the low B string (7th string) is not being used too much. Original song by Freddie Mercury (Queen)
See the TAB under the video.


DR VIOSSY BOHEMIAN RHAPSODY FOR SOLO GUITAR TAB

PDF >>

e-----------------------------------------------------------------------
B---10.--10.--10.--10-------10---\--------------------------------------
G---11.--11.--11.--11-------11---\--------------------------------------
D---14.--14.--14.--14-------14---\--------------------------------------
A-----------------------------------------------------------------------
E-----------------------------------------------------------------------
B-----------------------------------------------------------------------


e-----------------------------------------------------------------------
B---10.--10---10.--10---10-7--------------------------------------------
G---11.--11---11.--11---11-8--------------------------------------------
D---13.--13---14.--13---11-9--------------------------------------------
A-----------------------------------------------------------------------
E-----------------------------------------------------------------------
B-----------------------------------------------------------------------


e-----------------------------------------------------------------------
B---9---9---9---9h10---9------------------------------------------------
G---9---9---9---9h11---9------------------------------------------------
D-----------------------------------------------------------------------
A-----------------------------------------------------------------------
E--------------------------<12>---<12>----------------------------------
B-----------------------------------------------------------------------