20150730

EMINEM MOCKINGBIRD GUITAR TAB (COVER BY D7AVE)

Eminem Mockingbird Guitar played by d7ave.
He is using 1.5 step down tuning. This brings all strings 3 frets lower.
See the TAB under the video.



EMINEM MOCKINGBIRD GUITAR TAB                                                  Download PDF

Part 1

Db-------3---3---3/5---3---2---2----------------------------------------
Ab---0-----------------------------0------------------------------------
E----0-------------------------------0----------------------------------
B----2------------------------------------------------------------------
Gb---2-----------------3------------------------------------------------
Db---0------------------------------------------------------------------


Db---2---2-2-3p2-0-----------0------------------------------------------
Ab---------------------0-------0----------------------------------------
E--------------------0-----0-----0--------------------------------------
B----0------------------------------------------------------------------
Gb----------------------------------------------------------------------
Db---------------0------------------------------------------------------


Db---0------------------------------------------------------------------
Ab---0---0---0---0-------0---0---0--------------------------------------
E----0-------------0-2-------------0------------------------------------
B----2---------------x--------------------------------------------------
Gb---2---------------3--------------------------------------------------
Db---0------------------------------------------------------------------



20150723

VICTOR DE ANDRES BARBIE GIRL TAB (METAL VERSION)


Aqua - Barbie Girl metal version played by Victor de Andres.
He is using standard tuning.
See the TAB under the video.



VICTOR DE ANDRES BARBIE GIRL TAB                                              Download PDF


Part 1

e-----------------------------------------------------------------------
B-------------14--------------------------------------------------------
G---/13----13----14~----\-----/11----11-14(16)-11(13)---(11)-9~---------
D-------14------------------------13------------------------------------
A-----------------------------------------------------------------------
E-----------------------------------------------------------------------


e-----------------------------------------------------------------------
B-----------------------------------------------------------------------
G---9----9h11~--p9---------11-11-11-11-11-11-9-9-11/13-13-13-11-11-11---
D-----11----------11~--9-9----------------------------------------------
A-----------------------------------------------------------------------
E-----------------------------------------------------------------------
                       x x x  x  x  x  x  x  x x       x  x     x  x

e-----------------------------------------------------------------------
B------------14---------------------------------------------------------
G---13----13----14~----\-----/11----11-14(16)-11(13)---(11)-9~----------
D------14------------------------13-------------------------------------
A-----------------------------------------------------------------------
E-----------------------------------------------------------------------


20150719

ERIC CLAPTON COCAINE TAB (SOLO LIVE AT 2004 CROSSROADS GUITAR FESTIVAL)

Eric Clapton's live Cocaine solo from 2004 Crossroads Guitar Festival.
It starts at 1:14 ... enjoy.
See the TAB under the video.



ERIC CLAPTON COCAINE SOLO TAB                                                   Download PDF

(1:14)

e-----------------------------------------------------------------------
B---17(19)--------------------------------------------------------------
G-----------------------------------------------------------------------
D-----------------------------------------------------------------------
A-----------------------------------------------------------------------
E-----------------------------------------------------------------------


e-----------------------------------------------------------------------
B---17(19)---(17)(19)---17(19)------17.-17~-----------15--15~---h17.----
G-------------------------------------------------------16--------------
D-----------------------------------------------------------------------
A-----------------------------------------------------------------------
E-----------------------------------------------------------------------


e-----------------------------------------------------------------12~---
B------------------12-15-12-----------------------------12-15(17)-------
G-------12-14-(16)----------14(16)-14p12--14--12-14(16)-----------------
D---/14---------------------------------14--14--------------------------
A-----------------------------------------------------------------------
E-----------------------------------------------------------------------



20150713

HANSEL PETHIG A WHITER SHADE OF PALE TAB (FINGERSTYLE GUITAR COVER)

Hansel Pethig plays a great fingerstyle guitar cover of "A Whiter Shade of Pale".
Original song by Procol Harum.
Standard tuning with CAPO on the 2nd fret.
See the TAB under the video.


HANSEL PETHIG A WHITER SHADE OF PALE TAB                             Download PDF


Part 1

e-----------------------------------------------------------------------
B---0-----------0---------------0---0-----------------------0-----------
G-----------0---------------2---------------0-------0-----------0-------
D-------0---------------0---------------7---------------7---------------
A-----------------------------------------------9.--5-------------------
E---3---------------2---------------0-----------------------------------


e---0-----------0-------------------------------------------------------
B-----------0---------------7--/8.----0---------0---------------0-------
G-------0-----------------0---------5---5-------------------2-----------
D-----------------------0-------------------2-----------0---------------
A-----------------------------------0-----------------------------------
E---8---------------7-------------------------------3-------------------


e---2-----------2-----------3--/5.--------------------------------------
B-----------5-----------------------3-------3-------3-------0-----------
G-------2---------------2-------------0-----------0-----5-------5-------
D---0-----------------------------------4-------4-----------0-----------
A-------------------3---------------2-----------------------------------
E---------------------------------------------------2-------------------


20150708

GAME OF THRONES THEME WESTERN COVER TAB (BENDANPRODUCTIONS)


BenDanProductions plays a Western Guitar Cover of the Game of Thrones theme.
See the TAB under the video.



GAME OF THRONES THEME WESTERN COVER TAB                        Download PDF


Part 1

e---0---------------------------0---------------------------------------
B---1---------------------------2---------------------------------------
G---2---------------------------2---------------------------------------
D---2---------------------------2---------------------------------------
A---0---------------------------0---------------------------------------
E-----------------------------------------------------------------------



Part 2

    Am                                  Em
e-----------------------------------------------------------------------
B---5~------------------5~----------------------------------------------
G-------------------5h7-------------5h7-4~------------------------------
D-----------7~----------------7~----------------------------------------
A-----------------------------------------------------------------------
E-----------------------------------------------------------------------

    G                                     D
e-----------------------------------------------------------------------
B---3~------------------3~----------------------------------------------
G-------------------5p4---------------5p4-2~----------------------------
D-----------5~----------------5~----------------------------------------
A-----------------------------------------------------------------------
E-----------------------------------------------------------------------



20150705

BOBBY VEE TAKE GOOD CARE OF MY BABY TAB (INSTRUMENTAL COVER BY TRAPANNER)

Trapanner plays an instrumental guitar cover of Take good care of my baby.
True Fender Stratocaster sound.
See the TAB under the video.


TAKE GOOD CARE OF MY BABY TAB                                                   Download PDF

Part 1

e-----------------------------------------------------------------------
B---1/3-----------------------------------------------------------------
G---------4-----------------2h4---2---0-4-2-----------------------------
D-----------5---5\4-2---4h5---------------------------------------------
A-----------------------------------------------------------------------
E-----------------------------------------------------------------------


e-----------------------------------------------------------------------
B-------3-----------4-----------5---------------------------------------
G-----------4---2-0-----4-----------7---5-4---2-0-2---------------------
D---0-----------------------7-5-----------------------------------------
A-----------------------------------------------------------------------
E-----------------------------------------------------------------------



Part 2

e-----------------------------------------------------------------------
B-----------------------------------------------------------------------
G-----------------------------------------------------------------------
D---5-----5-4---4\2---2-4/5-5----------5-------4------------------------
A-----------------------------------------------------------------------
E-----------------------------------------------------------------------


20150628

TOOL RIGHT IN TWO TAB (ACOUSTIC COVER BY SHAMETHEDOG)

Great acoustic guitar cover of Right in Two by Tool.
The song is played in Dropped D tuning.
See the TAB under the video.


TOOL RIGHT IN TWO TAB                                                                       Download PDF

Part 1

e-----------------------------------------------------------------------
B-----------------------------------------------------------------------
G-----------------------------------------------------------------------
D-----------7/10---------10-----------7--------12-----------------------
A---------5------------8----0-------5---0-------------------------------
D---0------------8------------5-----------10----------------------------


e-----------------------------------------------------------------------
B-----------------------------------------------------------------------
G-----------------------------------------------------------------------
D-----------7/10---------10-----------7--------12h13--------------------
A---------5------------8----0-------5---0-------------------------------
D---0------------8------------5-----------10----------------------------


e-----------------------------------------------------------------------
B-----------------------------------------------------------------------
G-----------------------------------------------------------------------
D-----------7/10---------10-----------7--------12-----------------------
A---------5------------8----0-------5---0-------------------------------
D---0------------8------------5-----------10----------------------------


THE SHADOWS HAPPY BIRTHDAY TAB (MELVIN CHUNG COVER)

Melvin Chung plays an instrumental guitar cover of Happy Birthday.
This version was originally played by The Shadows.
TAB under the video.


MELVIN CHUNG HAPPY BIRTHDAY TAB                                              Download PDF

Part 1

        A               E                               A
e-----------------------------------------------------------------------
B-----------------------------------------------------------------------
G-------------------2---1---------------------------4---2---------------
D---2-2-4-------2-------------------2-2-4-------2-----------------------
A-----------------------------------------------------------------------
E-----------------------------------------------------------------------

        A       A7      D     D#dim     A       E       A
e-----------------------------------------------------------------------
B-------5-------2-------------------3-3-2-------------------------------
G-------------------2---1-----------------------2---4---2---------------
D---2-2-------------------------4---------------------------------------
A-----------------------------------------------------------------------
E-----------------------------------------------------------------------



Part 2

e-----------------------------------------------------------------------
B-----------------------------------------------------------------------
G-------------------2-2-1-111-1-1-------------------4-4-2-222-2-2-------
D---2-2-4-444-4-2-2-----------------2-2-4-444-4-2-2---------------------
A-----------------------------------------------------------------------
E-----------------------------------------------------------------------
    x x x xxx x x x x x x xxx x x   x x x xxx x x x x x x xxx x x