20170115

THE SPOTNICKS KARELIA TAB (GUITAR PRO - 1966)


The Spotnicks - Karelia from 1966. Lead guitar line.
Download the Guitar Pro Tab below.



THE SPOTNICKS KARELIA TAB

PDF >>

GP5 + GP6 >>

e----------5----------------------3----------------------1--------------
B-------5----------5-----------3----------3-----------1----------1------
G-----5--------------5.------4--------------4.------2--------------2.---
D-----------------------------------------------------------------------
A-----------------------------------------------------------------------
E-----------------------------------------------------------------------


e---0-------0---0---0-----0---------------------------------------------
B---0---------------------------0---1-----1-0-------0-------------------
G---1-----------------------2-------------------2-----------------------
D-----------------------------------------------------------------------
A-----------------------------------------------------------------------
E-----------------------------------------------------------------------


e-----1---1---0-----0---------------------------------------------------
B---0-----------------0---1---3---3--3-1.--0.---------------------------
G----------------------------------------------2------------------------
D-----------------------------------------------------------------------
A-----------------------------------------------------------------------
E-----------------------------------------------------------------------


20170110

GEORGE HARRISON SOMETHING TAB (INSTRUMENTAL GUITAR COVER BY CAUE LOBO)

Caue Lobo plays an instrumental guitar cover of Something by George Harrison.
Sounds amazing!
Download the Guitar Pro Tab below.



GEORGE HARRISON SOMETHING TAB

PDF >>

GP5 + GP6 >>

Part 1

e-----------------------------------------------------------------------
B-----------------------------------------------------------------------
G------2.--(5)(4)-2.--3-------4-----------------------------------------
D-----------------------------------------------------------------------
A-----------------------------------------------------------------------
E-----------------------------------------------------------------------


e-----------------------------------------------------------------------
B-----------------------------------------------------------------------
G---4/5---5-------5~----------5---4~------------------------------------
D---------------------------5-------------------------------------------
A-----------------------------------------------------------------------
E-----------------------------------------------------------------------


e-----------------------------------------------------------------------
B-----------------------------------------------------------------------
G---5\3-3-3.--3.--5.--5/7-----5.--5-------------------------------------
D----------------------------------5h7~----------\----------------------
A-----------------------------------------------------------------------
E-----------------------------------------------------------------------



20170105

YOU'LL NEVER WALK ALONE TAB (INSTRUMENTAL GUITAR COVER BY NEVILLE WORTHINGTON)

Neville Worthington plays an instrumental guitar cover of You'll Never Walk Alone.
The original song was written by Rogers and Hammerstein.
Download the Guitar Pro 6, GP5 and PDF files below.



YOU'LL NEVER WALK ALONE INSTRUMENTAL TAB

PDF >>

e-----------------------------------------------------------------------
B-----------------------------------------------------------------------
G-----------------------------------------------------------------------
D---2---0--------------------2---0--------------------------------------
A---------3------------------------3------------------------------------
E-----------------------------------------------------------------------


e-----------------------------------------------------------------------
B-----------------------------------------------------------------------
G-----------------------------------------------------------------------
D---2---3-5-----------------2-----0-------------------------------------
A-----------------------------------------------------------------------
E-----------------------------------------------------------------------


e-----------------------------------------------------------------------
B-----------------------------------------------------------------------
G-----------------------------------------------------------------------
D---2-3-----------------5---3-2-----------------5---2-0-----------------
A-----------------------------------------------------------------------
E-----------------------------------------------------------------------


20161230

JOE BONAMASSA BRIDGE TO BETTER DAYS TAB (GUITAR SOLO, LIVE)

Joe Bonamassa plays a brilliant guitar solo from 2:03 to 3:44
On YouTube: 'Joe Bonamassa - Bridge To Better Days (Arhus Denmark - July 2009)'
Download the GP5, GP6 and PDF files below.



JOE BONAMASSA BRIDGE TO BETTER DAYS SOLO TAB

PDF >>

GP5 + GP6 >>

e-------------5-----------------5---------------------------------------
B-------------5-----------------5--------------5/7-x-5-5----------------
G--------------------------------------------------x--------------------
D----5-7~-------7~-----5-7~-------7~-----7p5---5/7-x-5-5---4---4-5-5-6-6
A--0--------0--------0--------0--------0-----7--------------------------
E--------------------------------------------------------x-2---2-3-3-4-4
   x        x        x        x        x


e-------------5-----------------5---------------------------------------
B-------------5-----------------5--------------5/7-x-5-5----------------
G--------------------------------------------------x--------------------
D----5-7~-------7~-----5-7~-------7~-----7p5---5/7-x-5-5---4---4-5-5-6-6
A--0--------0--------0--------0--------0-----7--------------------------
E--------------------------------------------------------x-2---2-3-3-4-4
   x        x        x        x        x


e-------------5-----------------5---------------------------------------
B-------------5-----------------5--------------5/7-x-5-5----------------
G--------------------------------------------------x--------------------
D----5-7~-------7~-----5-7~-------7~-----7p5---5/7-x-5-5---4---4-5-5-6-6
A--0--------0--------0--------0--------0-----7--------------------------
E--------------------------------------------------------x-2---2-3-3-4-4
   x        x        x        x        x



20161225

MICHAEL BUBLÉ CHRISTMAS BABY PLEASE COME HOME TAB (GUITAR SOLO)

Michael Bublé - Christmas (Baby Please Come Home)
There is a cool guitar solo at 1:18. 
Download the GP6 GP5 and/or PDF files below.



MICHAEL BUBLÉ CHRISTMAS BABY PLEASE COME HOME TAB

GP5 + GP6 + PDF >>

(1:16 - 1:33)

e-----------------------------------------------------------------------
B-----------------------------------------------------------------------
G-----------------------------------------------------------------------
D-----------------------------------------------------------------------
A-------------------------4-------4h6---4~----\-------------------------
E-----------2---4---4/6-------6-----------------------------------------


e-----------------------------------------------------------------------
B-----------7-----------------------------------------------------------
G-----------6h8---6-----------------------------------------------------
D---------------------6h8---6-------------------------------------------
A-------------------------------8\6-4~----------------------------------
E------------------------------------------6.---------------------------


e-----------------------------------------------------------------------
B-----------------------------------------------------------------------
G---------4-------------------------------------------------------------
D---------4h6p4---4~----6.----/8.----4h6p4---4~----6--\-----------------
A---------------6--------------------------6----------------------------
E-----------------------------------------------------------------------