20150628

TOOL RIGHT IN TWO TAB (ACOUSTIC COVER BY SHAMETHEDOG)

Great acoustic guitar cover of Right in Two by Tool.
The song is played in Dropped D tuning.
See the TAB under the video.


TOOL RIGHT IN TWO TAB                                                                       Download PDF

Part 1

e-----------------------------------------------------------------------
B-----------------------------------------------------------------------
G-----------------------------------------------------------------------
D-----------7/10---------10-----------7--------12-----------------------
A---------5------------8----0-------5---0-------------------------------
D---0------------8------------5-----------10----------------------------


e-----------------------------------------------------------------------
B-----------------------------------------------------------------------
G-----------------------------------------------------------------------
D-----------7/10---------10-----------7--------12h13--------------------
A---------5------------8----0-------5---0-------------------------------
D---0------------8------------5-----------10----------------------------


e-----------------------------------------------------------------------
B-----------------------------------------------------------------------
G-----------------------------------------------------------------------
D-----------7/10---------10-----------7--------12-----------------------
A---------5------------8----0-------5---0-------------------------------
D---0------------8------------5-----------10----------------------------


THE SHADOWS HAPPY BIRTHDAY TAB (MELVIN CHUNG COVER)

Melvin Chung plays an instrumental guitar cover of Happy Birthday.
This version was originally played by The Shadows.
TAB under the video.


MELVIN CHUNG HAPPY BIRTHDAY TAB                                              Download PDF

Part 1

        A               E                               A
e-----------------------------------------------------------------------
B-----------------------------------------------------------------------
G-------------------2---1---------------------------4---2---------------
D---2-2-4-------2-------------------2-2-4-------2-----------------------
A-----------------------------------------------------------------------
E-----------------------------------------------------------------------

        A       A7      D     D#dim     A       E       A
e-----------------------------------------------------------------------
B-------5-------2-------------------3-3-2-------------------------------
G-------------------2---1-----------------------2---4---2---------------
D---2-2-------------------------4---------------------------------------
A-----------------------------------------------------------------------
E-----------------------------------------------------------------------



Part 2

e-----------------------------------------------------------------------
B-----------------------------------------------------------------------
G-------------------2-2-1-111-1-1-------------------4-4-2-222-2-2-------
D---2-2-4-444-4-2-2-----------------2-2-4-444-4-2-2---------------------
A-----------------------------------------------------------------------
E-----------------------------------------------------------------------
    x x x xxx x x x x x x xxx x x   x x x xxx x x x x x x xxx x x


20150622

IVO CABRERA STYLE TAB (INSTRUMENTAL COVER OF TAYLOR SWIFT'S SONG)


Taylor Swift - Style instrumental guitar cover played by Ivo Cabrera.
See the TAB under the video.



IVO CABRERA STYLE TAB                                                                      Download PDF

Intro

Guitar1
e-----------------------------------------------------------------------
B-----------------------------------------------------------------------
G---x-x-7.--7.--7.--7.--x-7.--4-4-4-x-x-7.--7.--4-4.--4.--4.--4-4-4-----
D-----------------------------------------------------------------------
A-----------------------------------------------------------------------
E-----------------------------------------------------------------------

Guitar2
e-----------------------------------------------------------------------
B-----------------------------------------------------------------------
G---7-------------------------------------------------------------------
D---9-------------------------------------------------------------------
A---9-------------------------------------------------------------------
E---7-------------------------------------------------------------------


G1
e-----------------------------------------------------------------------
B-----------------------------------------------------------------------
G---x-x-7.--7.--7.--7.--x-7.--4-4-4-x-x-7.--7.--4-4.--4.--4.--4-4-4-----
D-----------------------------------------------------------------------
A-----------------------------------------------------------------------
E-----------------------------------------------------------------------



20150615

THE LITTLE MERMAID PART OF YOUR WORLD TAB (CLASSICAL GUITAR COVER BY MARCO SAVELLI)


Marco Savelli covers The Little Mermaid - Part Of The World.
Nice classical guitar arrangement. 
TAB under the video.


THE LITTLE MERMAID PART OF YOUR WORLD TAB                        Download PDF


Part 1

e-----------------------------------------------------------------------
B---1-------1-------1-0---0-3-----0-3-1-----1-------1-0---0-3-----0-3---
G---2---0-2-----0-2---2-2-----0-2-----2-0-2-----0-2---2-2-----0-2-------
D---3---------3-------3---------------3-------3-------3-----------------
A-----------------------------------------------------------------------
E-----------------------------------------------------------------------


e-----------------------------------------------------------------------
B-------0-1-1---------0-1-3-3-----------0-1-1---0---1-0-1---3-3---------
G-----2-------------2---------------0-2-------------2---------------0---
D-----------------3---------------0---------------3---------------0-----
A---------------3---------------2-------------------------------2-------
E---1---------1-------1-------1-------1-------1-------1-------1---------


e---------------------------------0---0---------------0h2---------------
B---0-1-3-3---1-3-1---------0-1-3---------3-3-------1-----1-------------
G-----------------0-----------------0-------------0---------2-----------
D---------------0-----------------2---0-------0h2-------------0---------
A-------------2-----0---------0-3---------------------------------------
E---0-------0-----------------------------------------------------------


20150608

ERIC CLAPTON "CROSSROADS" TAB (SOLO)

Eric Clapton "Crossroads" - says the original video title.
There are 2 brilliant solo parts in this version - with that white Fender Stratocaster.
See the TAB under the video.



ERIC CLAPTON "CROSSROADS" SOLO TAB                                     Download PDF

Solo 1   (1:55)

e-----------------------------------------------------------------------
B---------13h15-13---------------13--15-13----------13.-----------------
G---///-----------14-14~---14~-----14-----14-14~------------------------
D-----------------------------------------------------------------------
A-----------------------------------------------------------------------
E-----------------------------------------------------------------------


e-----------------------------------------------------------------------
B---15(17)---(15)(17)-------15-13-15.--15'--13'-------------------------
G-----------------------------------------------------------------------
D-----------------------------------------------------------------------
A-----------------------------------------------------------------------
E-----------------------------------------------------------------------


e-----------------------------------------------------------------------
B---8-5-----------------------------------------------------------------
G-------7.--5---------------------5.------------------------------------
D-------------7-5---5h7-7~---7~-----------------------------------------
A-----------------7-----------------------------------------------------
E-----------------------------------------------------------------------

20150602

IMAGINE DRAGONS DEMONS TAB (INSTRUMENTAL GUITAR COVER BY ADAM BERGENDAHL)

Adam Bergendahl plays an instrumental guitar cover of Demons by Imagine Dragons.
Adam is using a nice Epiphone Les Paul guitar.
See the TAB under the video.



IMAGINE DRAGONS DEMONS INSTRUMENTAL TAB                        Download PDF


Part 1

e-----------------------------------------------------------------------
B-----------------------------------------------------------------------
G-----------------------------------------------------------------------
D----8--------------/8~--------------/10~----5-h6p5-------6.--6.--6~----
A--6------\8---8p6-6-------\8---8\6-6---------------8p6-6---------------
E-----------------------------------------------------------------------


e-----------------------------------------------------------------------
B-----------------------------------------------------------------------
G-----------------------------------------------------------------------
D------8~--------------/8~--------------/10~----5h6p5------6.--6.--6~--\
A--6-6-------\8---8\6-6-------\8---8p6-6-------------8p6-6--------------
E-----------------------------------------------------------------------


e-----------------------------------------------------------------------
B-----------------------------------------------------------------------
G-----------------------------------------------------------------------
D--8-8-8-8~-------8~--8-8-8-/13---\12---\10~----------------------------
A-------------10.-------------------------------------------------------
E-----------------------------------------------------------------------


20150526

HANK MARVIN APACHE TAB (LIVE, 2000)


Hank Marvin (lead guitarist of the Shadows) playing Apache live in 2000.
His Fender Stratocaster still sounds brilliant.
See the TAB under the video.


HANK MARVIN APACHE TAB                                                                 Download PDF

Part 1

e-------------------------3/5-3-0-----------------------------3/5-3-0---
B-----1-3(4)(3)---------1-----------------1-3(4)(3)---------1-----------
G---2-----------------2-----------------2-----------------2-------------
D-----------------------------------------------------------------------
A-----------------------------------------------------------------------
E-----------------------------------------------------------------------



Part 2

e-----------------------------------------------------------------------
B-----------------------------------------------------------------------
G-----2-----------2-----------------------------------------------------
D---2---------2-------4-------2---0---2---------------------------------
A-----------------------------------------------------------------------
E-----------------------------------------------------------------------


e-----------------------------------------------------------------------
B-----------------------------------------------------------------------
G-------2-----------2---------------------------------------------------
D---2-----------2-------4-------2---0---2-------------------------------
A-----------------------------------------------------------------------
E-----------------------------------------------------------------------

20150520

HANSEL PETHIG HALLELUJAH TAB (FINGERSTYLE COVER OF LEONARD COHEN'S SONG)

Hansel Pethig plays a nice fingerstyle guitar cover of Leonard Cohen's Hallelujah.
He is using standard tuning with CAPO on the 2nd.
See the TAB under the video.



HANSEL PETHIG HALLELUJAH TAB                                                     Download PDF


Part 1                       CAPO on the 2nd

e---------0-----0-----------0-------------------------------------------
B---0---3-----------------------3-0-----0-------------------------------
G---------3-----3-----------------0-----0-------------------------------
D---------------------------------2-----2-------------------------------
A-----------------------------------------------------------------------
E---------------------------------------------0-------------------------


e---------0-----0-----------0-------------------------------------------
B---0---3---------------0-------3-----0-----0-----0-----0---------------
G---------3-----3---------3---3-----0-----0-----0-----0-----------------
D---------------------2-----2-----2-----2-----2-------------------------
A-----------------------------------------------------------------------
E---------------------------------------------------0-------------------


e-----------------------------------------------------------------------
B-----------------------------------------------------------------------
G-------0-----0-----0-----0-----0-----0-----0-----0---------------------
D-----2-----2-----2-----2-----2-----2-----2-----2-----------------------
A---1-----1-----1-----1-----2-----2-----2-----2-------------------------
E-----------------------------------------------------------------------