20170520

BURNS ERNST COUNTRY ROADS TAB (INSTRUMENTAL GUITAR COVER)

Burns Ernst plays (Take Me Home) Country Roads with his Fender Telecaster.
Great instrumental cover of the old John Denver song.
Download the Guitar Pro 6 + GP5 and PDF files below.



BURNS ERNST COUNTRY ROADS TAB

GP5 + GP6 + PDF >>

Verse

e-----------------------------------------------------------------------
B-----------------------------------------------------------------------
G-----------------------------------------------------------------------
D-----------------------------------------------------------------------
A-----------------------------------------------------0-----------------
E-----------0---0-0h2-------0---------------2---0-2---------------------


e-----------------------------------------------------------------------
B-----------------------------------------------------------------------
G-----------------------------------------------------------------------
D-----------------------------------------------------------------------
A-----------2---2-2h4-------2-------------------------------------------
E-----------------------------------2---2-2-----0---2--/5-5-------------


e-----------------------------------------------------------------------
B-----------------------------------------------------------------------
G-----------------------------------------------------------------------
D-----------------------------------------------------------------------
A---------------------------------------0-0-----4---4-------------------
E-----------0---0-0h2-------0-------2-----------------------------------



20170515

SCORPIONS I'M LEAVING YOU TAB (RHYTHM GUITAR LINE)


Scorpions - I'm Leaving You rhythm guitar cover played by ScorpionKing.
Download the Guitar Pro 6, GP5 and PDF files below.



SCORPIONS I'M LEAVING YOU TAB

GP5 + GP6 + PDF >>

Intro

e-----------------------------------------------------------------------
B-----------------------------------------------------------------------
G-----------------------------------------------------------------------
D-----2-0---------2-0---0---7/9-------2-0---------2-0---0---9---\-------
A---------3~----------3-----5/7-----------3~----------3-----7---\-------
E---0-----------------------------0-------------------------------------


e-----------------------------------------------------------------------
B-----------------------------------------------------------------------
G-----------------------------------------------------------------------
D-------2-0---------2-0---0---7/9-------2-0---------2-0---0---9---\-----
A-----------3~----------3-----5/7-----------3~----------3-----7---\-----
E---0-------------------------------0-----------------------------------


e-----------------------------------------------------------------------
B-----------------------------------------------------------------------
G-----------------------------------------------------------------------
D-------2-0---------2-0---0---7/9-------2-0---------2-0---0---9---\-----
A-----------3~----------3-----5/7-----------3~----------3-----7---\-----
E---0-------------------------------0-----------------------------------


20170508

GARY MOORE THE STUMBLE TAB (GUITAR PRO 6 + GP5 + PDF)


Gary Moore - The Stumble is one of the best blues guitar songs.
Download the Guitar Pro 6 + GP5 and PDF files below.



GARY MOORE THE STUMBLE TAB

GP5 + GP6 + PDF >>

Part 1

e------------------------------12-\--------7-------7--------------------
B------------------------------12-\----8.--10(12)--10(12)--10-8-10-8'---
G--------9-11-9~-------11'-----12-\-/9----------------------------------
D---9h11----------------------------------------------------------------
A-----------------------------------------------------------------------
E-----------------------------------------------------------------------


e-------------------------------7.--------------------------------12-\--
B-------------------------------7.--------------------------------12-\--
G----9----7--7------------------7.---------9-11-9~-------12-\-----12-\--
D-------9------\7--5h6---\------6.----9h11------------------------------
A-----------------------------------------------------------------------
E-----------------------------------------------------------------------


e-----------------------------------------------------------------------
B-----------------------------------------------------------------------
G-----7.--9(11)---9(11)(9)-7---7'---------------------------------------
D---9------------------------9------9--7--------------------------------
A----------------------------------------\7p5---7----5h6----------------
E---------------------------------------------7----7-----7-7~-----------


20170430

MARK KNOPFLER THE LONG ROAD TAB (BURNS ERNST INSTRUMENTAL GUITAR COVER)

The Long Road (Mark Knopfler cover) played by Burns Ernst.
Easy instrumental guitar cover.
Download the Guitar Pro 6, GP5 and PDF files below.



MARK KNOPFLER THE LONG ROAD TAB

GP5 + GP6 + PDF >>

Part 1

e-----------------------------------------------------------------------
B---------------3---------------3---------------------------------------
G---4~------2-----4~--------2-----4~------------------------------------
D-----------------------------------------------------------------------
A-----------------------------------------------------------------------
E-----------------------------------------------------------------------


e-----------------------------------------------------------------------
B---------------3---------------3---------------------------------------
G---4~------2-----4~--------2-----4~------------------------------------
D-----------------------------------------------------------------------
A-----------------------------------------------------------------------
E-----------------------------------------------------------------------


e-----------------------------------------------------------------------
B-----0-1-------------------------------0-------------------------------
G-------------------------------------2---------------------------------
D---0-------2~----------------------2-------0---------------------------
A-----------------------------------------------------------------------
E-----------------------------------------------------------------------


20170425

CHRIS CORNELL ONE TAB (U2 MUSIC WITH METALLICA LYRICS)

Chris Cornell sings "One" with a single acoustic guitar.
U2 music with Metallica lyrics.
See the TAB below.



CHRIS CORNELL ONE TAB

GP5 + GP6 + PDF >>

Intro

e---0-------0-----0-0-0-0---0-0-0-0-2-------2-----2-2-2-2---2-2-2-2-----
B---1-------1-----1-1-1-0h1-1-1-1-1-1-------1-----1-1-1-0h1-1-1-1-1-----
G---2-------2-----2-2-2-2---2-2-2-2-2-------2-----2-2-2-2---2-2-2-2-----
D---2-------2-----2-2-2-2---2-2-2-2-0-------0-----0-0-0-0---0-0-0-0-----
A---0-------0-----0-0-0-0---0-0-0-0-------------------------------------
E-----------------------------------------------------------------------


e---0-----0-0-----0-0-0-0---0-0-0---3---3-3-3---3-3-3-3-3---3-3---------
B---1-----1-1-----1-1-1-0h1-1-1-1-0-0---0-0-1---1-1-1-0-0h1-1-1-1-------
G---2-----2-2-----2-2-2-2---2-2-2-0-0---0-0-0---0-0-0-0-0---0-0-0h2-----
D---3-----3-3-----3-3-3-3---3-3-3-0-0---0-0-0---0-0-0-0-0---0-0-0h2-----
A-----------------------------------2---2-2-2---2-2-2-2-2---2-2---------
E-----------------------------------3---3-3-3---3-3-3-3-3---3-3---------


e---0-----0-0---0-0-----0-----0-0-0-2-------2-----2-----2-----2-2-2-----
B---1-----1-1---1-0h1p0-1-----1-1-1-1-------1-----0h1p0-1-----1-1-1-----
G---2-----2-2---2-------2-----2-2-2-2-------2-----------2-----2-2-2-----
D---2-----2-2---2-------2-----2-2-2-0-------0-----------0-----0-0-0-----
A---0-----0-0---0-------0-----0-0-0-------------------------------------
E-----------------------------------------------------------------------