20180113

BURNS ERNST DADDY'S BOLERO TAB (FRANCIS GOYA COVER)

Burns Ernst plays Daddy's Bolero by Francis Goya
Very nice instrumental guitar cover
Download the TAB below



BURNS ERNST DADDY'S BOLERO TAB

GP5 + GP6 + PDF >>

Part 1
         A7              Dm                              A7
e-----------0-1-0h1p0----1------------------0-1-0h1p0----1-0------------
B------/3--------------3---------------/3--------------3----------------
G-----------------------------------------------------------------------
D-----------------------------------------------------------------------
A-----------------------------------------------------------------------
E-----------------------------------------------------------------------


                        Gm                A                Dm
e------0---1-1h3--1--0--6~------------5h6p5----------3-1-0-1p0----------
B--------------------------------------------------------------3--------
G-----------------------------------------------------------------------
D-----------------------------------------------------------------------
A-----------------------------------------------------------------------
E-----------------------------------------------------------------------


                         Dm                              A7
e-----------0-1-0h1p0----1------------------0-1-0h1p0----1-0------------
B------/3--------------3---------------/3--------------3----------------
G-----------------------------------------------------------------------
D-----------------------------------------------------------------------
A-----------------------------------------------------------------------
E-----------------------------------------------------------------------


20180106

TONYSHAD BOBBY'S GIRL TAB (SHADOWMAN PLAYS BOBBY'S GIRL)


Tonyshad plays an instrumental guitar cover of Bobby's Girl
White Fender Stratocaster forever !!!
Download the TAB below


TONYSHAD BOBBY'S GIRL TAB

GP5 + GP6 + PDF >>

Part 1

e-----------------------------------------------------------------------
B---------------3---5-3-------------------------------------------------
G-----------4-------------------------------------4---5-4---------------
D-------5-----------------5~------------------5-------------5~----------
A-----------------------------------------7-----------------------------
E-----------------------------------------------------------------------


e-----------------------------------------------------------------------
B---------------5.--3---------------------------------------------------
G-----------5-------------4-----4---2~----------------------------------
D-------5---------------------5-----------------------------------------
A-----------------------------------------------------------------------
E-----------------------------------------------------------------------


e-----------------------------------------------------------------------
B---------------3---5-3-------------------------------------------------
G-----------4-------------------------------------4---5-4---------------
D-------5-----------------5~------------------5-------------5~----------
A---------------------------------------7-------------------------------
E-----------------------------------------------------------------------


20171228

DON FELDER HOTEL CALIFORNIA SOLO TAB (ACOUSTIC LIVE)

Don Felder plays Hotel California acoustic guitar solo live at the Jeff Probst Show.
It's in G minor instead of the original B minor - but sounds cool.
Download the TAB below.



DON FELDER HOTEL CALIFORNIA SOLO TAB

GP5 + GP6 + PDF >>

Main Part

e-------------------3-----3-------------------5-------------------------
B-----------------3-----------------------3-------3---------------------
G-------------3-------------3---5-------5-------------------------------
D---------5-------------------------4---------------4-------------------
A-------5---------------------------------------------------------------
E---3-------------------------------------------------------------------


e-------------3-------------------------------------3-------------------
B---------6-------6-------6-------------------3-------------------------
G-------5---------------5---------5-------3-------3---------------------
D---3---------------3-----------3-------5-------------------------------
A---------------------------3-------7-----------------------------------
E-----------------------------------------------------------------------


e-------------------3-------------------------6-------------------------
B-------------4-------------------4-------3-------3---------------------
G---------3-------3-------3-----3-------3-----------------3-------3-----
D-------5-------------------3h5-----3-------------------3-------3-------
A---6-------------------6---------------------------5-------------------
E-----------------------------------------------------------6-----------


20171223

PMF IMPRESSIONI DI SETTEMBRE TAB (FINGERSTYLE GUITAR COVER BY LEONARDO CRENNA)

Leonardo Crenna plays Impressioni di Settembre by PMF
Amazing fingerstyle guitar cover in standard tuning.
Download the TAB below.



PMF IMPRESSIONI DI SETTEMBRE FINGERSTYLE TAB

GP5 + GP6 + PDF >>

Verse

e-----------------------------------------------------------------------
B---------------3-3-3-3~--------3-3-3-----------------------------------
G---------------0-0-0-0---------0-0-2---2-2~---0h2-2~-------------------
D-----------------------------------0-----------------------------------
A---2-------------------------------------------------------------------
E---0-------------------------------------------------------------------


e---0-------------------------------------------------0-----0-----------
B---0---------------------------------------------7/8---0h3---0---------
G---6-----------------------------------------------------------0h2-----
D---7-----------7-7~---7~-----7-7/9-9-----------------------------------
A---0-------------------------------------------------------------------
E---0---------------------------------0---------------------------------


e-----------------------------------------------------------------------
B---3--------------------------------0----------------------------------
G---2---------2-2-2-2~--------2-2/4\-2----------------------------------
D---0--------------------------------2---2-2---0h2-2~-------------------
A---0--------------------------------0----------------------------------
E-----------------------------------------------------------------------


20171218

STEVIE RAY VAUGHAN LOOKIN' OUT THE WINDOW TAB (GUITAR SOLO, LIVE AT DAYTONA BEACH 1987)

Stevie Ray Vaughan - Lookin' Out The Window guitar solo
This solo is taken from a live version - 1987 Daytona Beach
It starts about 1:58 and goes until 3:19 in this video
Download the TAB below


STEVIE RAY VAUGHAN LOOKIN' OUT THE WINDOW SOLO TAB (LIVE)

GP5 + GP6 + PDF >>

Solo (1:58 - 3:19)

eb---------------------------------------------5------------------------
Bb---------------------------------------5---7-----x--------------------
Gb-------2-2---2-----2-----------2---2----------------------------------
Db---------------5'-----------------------------------------------------
Ab---0-----------------5'--4-0-----0---0--------------------------------
Eb----------------------------------------------------------------------


eb---8(10)-----8(10)---8-5---8-5-----5---5------------------------------
Bb---x-----------------------------5------------------------------------
Gb-----------------------------------------7(9)---7-5~------------------
Db----------------------------------------------------------------------
Ab----------------------------------------------------------------------
Eb----------------------------------------------------------------------


eb------------------5---5----5----------5-------------------------------
Bb---7p5----------5---5---8'---5------5---8------8----------------------
Gb---7p5-----7(9)----------------7(9)-------7(9)---(9)(7)-5~----7p5-----
Db-------7-5--------------------------------------------------------7-5-
Ab----------------------------------------------------------------------
Eb----------------------------------------------------------------------
         x x