20170325

BURNS ERNST BLUEING TAB


Burns Ernst plays an instrumental guitar cover of Blueing.
The original song was composed and played by Matti Luhtala.
Download the Guitar Pro 6 and PDF files below.



BURNS ERNST BLUEING TAB

GP6 + PDF >>

Intro

e-----------------------------------------------------------------------
B-----------------3---------------3-------------------------------------
G---4---------2-4---4~--------2-4---4~--------2-4-2---------------------
D---------------------------------------------------2-------------------
A-----------------------------------------------------------------------
E-----------------------------------------------------------------------


Verse

e-------------/7--7--7--5.-----3-------2h3-2----------------------------
B------0---1----------------5----------------3---------3----------------
G--2-------------------------------------------4~---------4.------------
D------------------------------------------------------------4--2~------
A-----------------------------------------------------------------------
E-----------------------------------------------------------------------


e--------------------------------------------------------3--2-----------
B--------------------------------------------------------------3--0-----
G-----------------------------------------------------------------------
D---------------5--5--5--5--5/7--4-------4h5-4-0------------------------
A--0---2---2h3-----------------------------------2----------------------
E-----------------------------------------------------------------------


20170320

WILLIE NELSON O'ER THE WAVES TAB (RED HEADED STRANGER 1975)


Willie Nelson - O'er The Waves from the album Red Headed Stranger (1975)
Download the Guitar Pro 6, GP5 and PDF files below.



WILLIE NELSON O'ER THE WAVES TAB

PDF >>

e-------------------------------3---------------------------------------
B---3-----------------------3---0---------------------------------------
G-----5-4-----------3---4---0---0---------------------------------------
D---------------------------0-------------------------------------------
A-----------------------------------------------------------------------
E-----------------------------------------------------------------------


e---2----3-5---3.----2-3------------------------------------------------
B------------------------------3/--7------------------------------------
G--------------------------4--------------------------------------------
D-----------------------------------------------------------------------
A-----------------------------------------------------------------------
E-----------------------------------------------------------------------


e-----------------------------------------------------------------------
B-----------------------3/--7-------------------------------------------
G---5-----------4---5---------------------------------------------------
D-----------------------------------------------------------------------
A-----------------------------------------------------------------------
E-----------------------------------------------------------------------


20170315

MIKE HOWE A LONG WAY TO GO TAB (RE-VISITED)


Mike Howe - "A Long Way To Go" instrumental acoustic guitar song.
Capo on the 4th fret - standard tuning.
Download the Guitar Pro Tab below.



MIKE HOWE A LONG WAY TO GO TAB

GP5 + GP6 + PDF >> 

G1                         - Capo on the 4th -  
e-----------------------------------------------------------------------
B-----------------------------------------------------3---3-------3-----
G-----------------------------------------------------------------------
D-----------------------------------------------------------------------
A-----------------------------------------------------------------------
E-----------------------------------------------------------------------

G2
e---------0-------------------------------------------------------------
B-----3-----3---3---------3---------------3---------------3-------------
G-------0-----0---0---0-----0---0-----0-----0---0-----0-----0---0-------
D-----------------------2-----2---0-----0-----0---0-----0-----0---0-----
A---3---------------3---------------2---------------2-------------------
E-----------------------------------------------------------------------


G1
e-----------------------------------------------------------------------
B---3-5---5-------3-3-1---1-------1-1--3--3------3h5-3------------------
G-----------------------------------------------------------------------
D-----------------------------------------------------------------------
A-----------------------------------------------------------------------
E-----------------------------------------------------------------------


20170309

LOS LONELY BOYS HEAVEN TAB (INTRO SOLO)


Los Lonely Boys - Heaven starts with a cool guitar solo until 0:30.
Half-step down tuning and use the neck pick-up on your Fender Stratocaster.
Download the Guitar Pro 6, GP5 and PDF files below.



LOS LONELY BOYS HEAVEN TAB

GP5 + GP6 + PDF >>

Intro solo

eb---7~----7.---------8/10-10-10-10-10-10-10\8----8.--------------------
Bb---8~----8.--------10/12-12-12-12-12-12-12\10---10.-------------------
Gb----------------------------------------------------------------------
Db----------------------------------------------------------------------
Ab----------------------------------------------------------------------
Eb----------------------------------------------------------------------


eb-----12.--12.--12.--12.--12-12\10----10.------------------------------
Bb-----13.--13.--13.--13.--13-13\12-12-12.------------------------------
Gb----------------------------------------------------------------------
Db----------------------------------------------------------------------
Ab----------------------------------------------------------------------
Eb----------------------------------------------------------------------


eb---10.--10.--10.--10-10\8-----8.---10.--12.--12.--10-10-x-8--x--------
Bb---12.--12.--12.--12-12\10-10-10.--12.--13.--13.--12-12-x-10-x--------
Gb----------------------------------------------------------------------
Db----------------------------------------------------------------------
Ab----------------------------------------------------------------------
Eb----------------------------------------------------------------------


20170304

PETE KORVING AVE MARIA NO MORRO TAB (GUITAR PRO 6 - PDF)


Pete Korving's instrumental guitar cover of Ave Maria No Morro.
Download the GP6 and PDF files below.



PETE KORVING AVE MARIA NO MORRO TAB

GP6 + PDF >>

Intro

e-------9-------9.----9------------------9-------9.----9----------------
B---------9---------------8~---------------9---------------8--\---------
G---9---------9-----9----------------9---------9-----9------------------
D-----------------------------------------------------------------------
A-----------------------------------------------------------------------
E-----------------------------------------------------------------------


Part 1

e-----------------------------------------------------------------------
B-----------------------------------------------------------------------
G-----------------------------------------------------------------------
D---------------------------2--2~-------222-----------2-4-2-2-----------
A---2-2-2-2--2~-------2-1-2------------------4~----------------3~-------
E-----------------------------------------------------------------------


e-----------------------------------------------------------------------
B-----------------------------------------------------------------------
G-----------------------------------------------------------------------
D---2-4-2.--------------------------------------------------------------
A----------2--2~--------222~-----2-4--4/6-\--2--2~----------------------
E-----------------------------------------------------------------------