20171014

DOLLY PARTON DO I EVER CROSS YOUR MIND TAB (COVER BY LINDSAY STRAW)

Dolly Parton - Do I Ever Cross Your Mind acoustic guitar cover by Lindsay Straw.
Capo on the 1st fret, standard tuning. (actually on the 2nd but with half step down tuning)
Download the TAB with the lyrics below.



DO I EVER CROSS YOUR MIND TAB

GP5 + GP6 + PDF >>

Intro                        - Capo on the 1st -

e-----------------------------------------------------------------------
B---1---1---1-----1---1---1-----1---1---1-------------------------------
G---------------0---------------0---------------------------------------
D-------0---0h2-----2---0---------------0-------------------------------
A---3-----------------------3-------3-----------------------------------
E-----------------------------------------------------------------------


e-----------------------------------------------------------------------
B---1-----1---1---1-----1---------1-------------------------------------
G-------0---------------0-------0---------------------------------------
D---0h2-----2---0-----------0h2-----------------------------------------
A-------------------3---------------------------------------------------
E-----------------------------------------------------------------------


e-----------------------------------------------------------------------
B-------1---------------0---------0-----1-----1---1-----1---------------
G---0-------------------0-----------------------------------0---0-------
D-----------2---0---------------0-------0h2-0---0-----------------------
A---------------------------0h2-----3---------------3---0-------0-------
E-------------------3---------------------------------------3-----------


20171008

EGOIST ALL ALONE WITH YOU TAB (FINGERSTYLE GUITAR COVER)

All Alone With You fingerstyle guitar cover played by heechan.
Original song by EGOIST. Dropped D tuning and CAPO on the 2nd fret.
Download the tab files below.



ALL ALONE WITH YOU FINGERSTYLE TAB

GP5 + GP6 + PDF >>

Part 1

e---5<17>-4<16>---------------------------------------------------------
B---------------5<17>-<12>----------------------------------------------
G----------------------------2<14>---1<13>---2<14>p1<13>----------------
D--------------------------------------------------------2<14>---<12>---
A-----------------------------------------------------------------------
D---0--------------------------------------2----------------------------


e---------0--------------------------<12>-------------------------------
B-------0-----------------------<12>------------------------------------
G---1-2-------------1<13>-2<14>-----------------------------------------
D-----------------------------------------------------------------------
A-----------------------------------------------------------------------
D---4-------------------------------------------------------------------


e-------------------------------------------------0---------------------
B---------------------------------------------0-----------------0-------
G---1-----2---------1-----2-----------------------------------2---2-----
D-----------------------2-----------6---6-7-----------------------------
A---------------------2---------------4---------------------------------
D---0---------------2---------------4-----------------------------------

20171003

ELLERT NORDMARK I REMEMBER ELVIS PRESLEY TAB (INSTRUMENTAL GUITAR COVER)

Ellert Nordmark plays I Remember Elvis Presley (Danny Mirror)
Very nice instrumental guitar cover.
Download the TAB below.



ELLERT NORDMARK I REMEMBER ELVIS PRESLEY TAB

GP5 + GP6 + PDF >>

Part 1

e-----------------------------------------------------------------------
B-----------------------------------------------------------------------
G-----------------------------------------------------------------------
D-----------0-2-4-4-4-4-2-0---------------------------------------------
A---4-4-4-4-----------------4-------------------------------------------
E-----------------------------------------------------------------------
    x x x x x x x x x x x x 


e-----------------------------------------------------------------------
B-----------------------------------------------------------------------
G----------------------------------2~-----------------------------------
D-------0-2-------0-2-2/4~-----2/4--------------------------------------
A---4---------4---------------------------------------------------------
E-----------------------------------------------------------------------


e-----------------------------------------------------------------------
B-----------------------------------------------------------------------
G---1---2-2/4-2---1-----------------------------------------------------
D-------------------4-2~------------------------------------------------
A-----------------------------------------------------------------------
E-----------------------------------------------------------------------

20170928

BLAZE FOLEY IF I COULD ONLY FLY TAB (GUITAR PRO)


Blaze Foley plays If I Could Only Fly. One single guitar and Blaze Foley.
Half-step down tuning
Download the tab below.



BLAZE FOLEY IF I COULD ONLY FLY TAB

GP5 + GP6 + PDF >>

Intro

eb----------------------------------------------------------------------
Bb-------1-----------1-------------------0-----------0------------------
Gb-----------0-----------0-------0-----------0-----------0-------0------
Db---------------2h3---------3-------------------0h2--p0----------------
Ab---3-------------------------------------------------------0h2--------
Eb-----------------------------------3----------------------------------


eb---------------------------------------------------0------------------
Bb-------1---------------1---------------1---------------1-------1------
Gb-----------0---------------2---------------0---------------0----------
Db---------------0h3-------------3---------------2----------------------
Ab---3-------------------------------3----------------------------------
Eb-------------------1--------------------------------------------------


eb----------------------------------------------------------------------
Bb-------1-----------1-------------------0-----------0------------------
Gb-----------0-----------0-------0-----------0-----------0-------0------
Db---------------2h3---------3-------------------0h2--p0----------------
Ab---3-------------------------------------------------------0h2--------
Eb-----------------------------------3----------------------------------


20170923

THE AVETT BROTHERS FAMOUS FLOWERS OF MANHATTAN TAB (COVER BY MATT)

Famous Flowers of Manhattan (The Avett Brothers) cover played by Matt
He uses standard tuning with Capo on the 1st fret. (lyrics included too)
Download the Guitar Pro 6, GP5 and PDF files below.



THE AVETT BROTHERS FAMOUS FLOWERS OF MANHATTAN TAB

GP5 + GP6 + PDF >>

Intro

e-----------------------------------------------------------------------
B---3-------0--------------0--------------------------------------------
G---------------------0-2----2--0-0-------0-----------------------------
D--------0---------0---------0---------0--------------------------------
A-----------------------------------------------------------------------
E---3---------3---------3---------3-------------------------------------


e-----------------------------------------------------------------------
B------0---------0---------0-----------0--------------------------------
G---2----2--0-2----2--0-2----2--0-2-------0-----------------------------
D--------0---------0---------0---------0--------------------------------
A-----------------------------------------------------------------------
E---3---------3---------3---------3-------------------------------------


e-----------------------------------------------------------------------
B-----------1---------1---------1----0----------------------------------
G------0---------0---------0--------------0-----------------------------
D--------2---------2---------2---------2--------------------------------
A---3---------3---------3---------3-------------------------------------
E-----------------------------------------------------------------------