20171115

PAULINHO MOSKA NOS BRACOS DE ISABEL TAB


Very nice bossa nova guitar playing in Nos Bracos De Isabel (Paulinho Moska)
Download the TAB below



PAULINHO MOSKA NOS BRACOS DE ISABEL TAB

GP5 + GP6 + PDF >>

Intro

e-----------------------------------------------------------------------
B---6---6-----6-----6---6-----6-----4---4-----4-----6---6-----6---------
G---7---7-----7-----7---7-----7-----5---5-----5-----7---7-----7---------
D---5---5-----5-----5---5-----5-----6---6-----6-----6---6-----6---------
A---6-------6-----6-6-------6-----x-------------------------------------
E-----------------------------------6-------6-----x-6-------6-----x-----


e-----------------------------------------------------------------------
B---6---6-----6-----6---6-----6-----4---4-----4-----6---6-----6---------
G---7---7-----7-----7---7-----7-----5---5-----5-----7---7-----7---------
D---5---5-----5-----5---5-----5-----6---6-----6-----6---6-----6---------
A---6-------6-----6-6-------6-----x-------------------------------------
E-----------------------------------6-------6-----x-6-------6-----x-----


Verse

e-----------------------------------------------------------------------
B---8---8-----8-----4---4-----4-----3---3-----3-----2---2-----2---------
G---7---7-----7-----4---4-----4-----3---3-----3-----3---3-----3---------
D---8---8-----8-----3---3-----3-----1---1-----1-----2---2-----2---------
A---6-------------------------------3-------3-----3-3-------3-----x-----
E-----------6-----x-3-------3-----3-------------------------------------

20171110

BURNS ERNST HELP ME MAKE IT THROUGH THE NIGHT TAB (INSTRUMENTAL GUITAR COVER)

Kris Kristofferson - Help Me Make It Through The Night
Instrumental guitar cover played by Burns Ernst
Download the TAB below



BURNS ERNST HELP ME MAKE IT THROUGH THE NIGHT TAB

GP5 + GP6 + PDF >>

Part 1

e-----------------------------------------------------------------------
B----------5---6-5-----3---5.-------------------------------------------
G------5----------------------------------------------------------------
D------------------------------5~---------------------------------------
A-----------------------------------------------------------------------
E-----------------------------------------------------------------------


e-----------------------------------------------------------------------
B------5-5---5h6---5---3------------------------------------------------
G------------------------5---5~-----------------------------------------
D-----------------------------------------------------------------------
A-----------------------------------------------------------------------
E-----------------------------------------------------------------------


e-----------------------------------------------------------------------
B------3---5-5/6---5---3-6----------------------------------------------
G------------------------------4~---------------------------------------
D-----------------------------------------------------------------------
A-----------------------------------------------------------------------
E-----------------------------------------------------------------------


20171106

DJANGO REINHARDT TEARS TAB (GUITAR COVER BY SAMANTHA WELLS)

Samantha Wells plays Tears by Django Reinhardt
Nice guitar cover in standard tuning
Download the TAB below



DJANGO REINHARDT TEARS TAB

GP5 + GP6 + PDF >>

Part 1

e---------------------------------3---1---------------------------------
B---------1-----------1---------3------------5/6---5--------------------
G---------2-----------2-------2-------------4---------------------------
D-------2-----------2---------------------0-----------------------------
A---0---------0-3---------0-2-------------------------------------------
E---------------------------------------4-------------------------------


e---------------------------------3---1---------------------------------
B---------1-----------1---------3------------5/6---5--------------------
G---------2-----------2-------2-------------4---------------------------
D-------2-----------2---------------------0-----------------------------
A---0---------0-3---------0-2-------------------------------------------
E---------------------------------------4-------------------------------


e-------0-0---0-1-----1-------------------------------------------------
B-------2-2---2-2-----2-----3-------3---------3-------------------------
G-------0-0---0-0-----0-----2---------2-----2---------------------------
D-------2-----------2-------3-----3-------3-----------------------------
A---1-----------1-----------0-------------------------------------------
E---------------------------------------1---------x---------------------

20171031

SVEIN BAKKEN BARNATRO TAB (INSTRUMENTAL GUITAR COVER)


Svein Bakken plays Barnatro (Childhood Faith) - instrumental guitar cover.
Download the tablature below.



SVEIN BAKKEN BARNATRO TAB

GP5 + GP6 + PDF >>

Part 1

e-----------4------3-4---7----------------------------------------------
B-------5-------------------------------5-4--3-------7-5----------------
G---4------------------------4-----------------6-----------6---4--------
D-----------------------------------------------------------------------
A-----------------------------------------------------------------------
E-----------------------------------------------------------------------


e--------------------4--------------------------------------------------
B----------------5-------7--------4---5--5/7----------------------------
G--------4-----4------------6-------------------------------------------
D---6--7----------------------------------------------------------------
A-----------------------------------------------------------------------
E-----------------------------------------------------------------------


e---------------------------7-------------------------------------------
B---------5---5/9-----8-9--------------5-4--3-------7-5-----------------
G---4-4-------------------------4-------------6-----------6---4---------
D-----------------------------------------------------------------------
A-----------------------------------------------------------------------
E-----------------------------------------------------------------------


20171024

DOROTHY NO CHURCH IN THE WILD TAB (LIVE IN AUSTIN, 2015 #JAMINTHEVAN)


Dorothy - No Church In The Wild live #Jaminthevan
Standard tuning, download the TAB below



DOROTHY NO CHURCH IN THE WILD TAB

GP5 + GP6 + PDF >>

Intro

e-----------------------------------------------------------------------
B-----------------------------------------------------------------------
G-----------------------------------------------------------------------
D--------------------2-----------2h4------------------2-----------------
A--------------2p0-----2------------------------2p0-----4-2---2---------
E---2~---5-2-5-----2-----5-2-5-2-----2~---5-2-5-----2-------5---5-2~----


e-----------------------------------------------------------------------
B-----------------------------------------------------------------------
G-----------------------------------------------------------------------
D--------------------2-----------2h4------------------2-----------------
A--------------2p0-----2------------------------2p0-----4-2---2---------
E---2~---5-2-5-----2-----5-2-5-2-----2~---5-2-5-----2-------5---5-2-0---


Verse

e-----------------------------------------------------------------------
B-----------------------------------------------------------------------
G-----------------------------------------------------------------------
D--------------------2-----------2h4------------------2-----------------
A--------------2p0-----2------------------------2p0-----4-2---2---------
E---2~---5-2-5-----2-----5-2-5-2-----2~---5-2-5-----2-------5---5-2-0---