20180218

BURNS ERNST OVER THE RAINBOW TAB (GUITAR INSTRUMENTAL TAB)

IZ - Over the Rainbow and Wonderful World guitar cover played by Burns Ernst
Very nice instrumental guitar cover with the ukulele in the background
Download the TAB under the video



OVER THE RAINBOW INSTRUMENTAL TAB

GP5 + GP6 + PDF >>

Part 1

e-----------------------------------------------------------------------
B-----------------------------------------------------------------------
G-----------------------------------------------------------------------
D-----------------------------------------------------------------------
A---3---/---7-------2-------5--2--5--3-----------3---3------------------
E-----------------------------------------------------------------------


e-----------------------------------------------------------------------
B-----------------------------------------------------------------------
G-----------------------------------------------------------------------
D-----------------------------------------------------------------------
A---3-------3-------2-----2/5--2------0--2--3---------0--3--3--3--3-----
E-----------------------------------------------------------------------


Part 2

e-----------------------------------------------------------------------
B-----------------------------------------------------------------------
G---5-------5-------4--------4---5-----------2--------------------------
D----------------------5--7--------------------------5------------------
A------------------------------------3----------------------------------
E-----------------------------------------------------------------------


20180212

MEMORY FROM CATS TAB (FINGERSTYLE CLASSICAL GUITAR TAB)

Memory from Cats easy fingerstyle classical guitar cover played by Steven Law
It's in Dropped D tuning and no Capo is used
Download the TAB under the video



MEMORY FROM CATS CLASSICAL GUITAR TAB

GP5 + GP6 + PDF >>

Part 1

e-----------------------------------------------------------------------
B-----------2-----------2-----------2-----------2-----------------------
G-----------------------------------------------------------------------
D-------2-----------2-----------2-----------2---------------------------
A---0-----------------------0-------------------------------------------
D-----------------------------------------------------------------------


e-----------------------------------------------------------------------
B-----------2-----------2-----------2-----------2-----------------------
G-----------------------------------------------------------------------
D-------2-----------2-----------2-----------2---------------------------
A---0-----------------------0-------------------------------------------
D-----------------------------------------------------------------------


e---5-----------5---------------4---5---7---5---------------------------
B-----------2-----------2-----------------------7-----------------------
G-----------------------------------------------------------------------
D-------2-----------2---------------------------------------------------
A---0-----------------------0-------------------------------------------
D-----------------------------------------------------------------------


20180204

I'LL TELL ME MA TAB (GUITAR SOLO)


Short video how to play the melody of "I'll Tell Me Ma" on guitar
Irish folk song in the key of G
See the TAB below




I'LL TELL ME MA TAB


e-----------------------------------------------------------------------
B-----------0-----0-1p0-------------------------------------------------
G-------0-------0-------2--/4---4-5-4p--2---2-2-2-4-2p0-0---0---0-0-----
D---0-------------------------------------------------------------------
A-----------------------------------------------------------------------
E-----------------------------------------------------------------------


e-----------------------------------------------------------------------
B-----------0-----0-1p0-------------------------------------------------
G-------0-------0-------2--/4---4-5-4p--2---2-2-2-4-2p0-0---0-----------
D---0-----------------------------------------------------------0-------
A-----------------------------------------------------------------------
E-----------------------------------------------------------------------


e---3-----3-------------------------------------------------------------
B---3-----5p3---3---h5---5---5------------------------------------------
G---------------4---h5---5---5---0--------------------------------------
D-----------------------------------------------------------------------
A-----------------------------------------------------------------------
E-----------------------------------------------------------------------


20180129

I COULD EASILY FALL IN LOVE WITH YOU TAB (INSTRUMENTAL GUITAR TAB)

I Could Easily Fall In Love With You instrumental guitar cover played by Tonyshad
Easy guitar instrumental of the old Cliff Richard song
Download the TAB under the video



I COULD EASILY FALL IN LOVE WITH YOU GUITAR INSTRUMENTAL TAB

GP5 + GP6 + PDF >>

Part 1

e-----------------------------------------------------------------------
B--------------2--------------------------------------------------------
G-------2h4---------4----2----1-----------------------------------------
D----------------------------------2----2/4----------2-2----------------
A-----------------------------------------------------------------------
E-----------------------------------------------------------------------


e-----------------------------------------------------------------------
B--------------2--------------------------------------------------------
G-------2h4---------4----2----1-----------------------------------------
D----------------------------------2----2/4~----------------------------
A-----------------------------------------------------------------------
E-----------------------------------------------------------------------


e-----------------------------------------------------------------------
B---------2----3----2-------------------5~------------------------------
G-------4----------------4----2----1.------------2-2~-------------------
D-----------------------------------------------------------------------
A-----------------------------------------------------------------------
E-----------------------------------------------------------------------

20180122

LEAVING OF LIVERPOOL TAB (GUITAR SOLO)


Short video how to play the melody of "Leaving of Liverpool" on guitar
The solo is played in the key of D here
See the TAB below



LEAVING OF LIVERPOOL TAB


e-----------------------------------------------------------------------
B-----------------------------------------------------------------------
G-----------2-----------2-----------------------------------------------
D---0---2---2h4-----4-------5---4-h5p4p2---0----------------------------
A-----------------------------------------------------------------------
E-----------------------------------------------------------------------


e-----------------------------------------------------------------------
B---2/3~----3p----------------------------------------------------------
G---0-----------4p--2~--------------------------------------------------
D-----------------------------------------------------------------------
A-----------------------------------------------------------------------
E-----------------------------------------------------------------------


e-----------------------------------------------------------------------
B-----------------------------------------------------------------------
G---------------2---2-----2h4---2h4p2-----------------------------------
D---0---2-2h4-----------4------------5p--4p--2~-------------------------
A--------------------------------------------------------5p--4p--2p-----
E-----------------------------------------------------------------------