20210721

THE ROCKING GHOSTS - MARIANNE TAB (EUGENE MAGO)


The Rocking Ghosts - Marianne instrumental guitar cover by Eugene Mago
Vintage instrumental guitar song played with a Fender Stratocaster
Download the TAB under the video



MARIANNE TAB

PDF + GUITAR PRO >>

Intro

e---------11~------------11---12-13.------------------------------------
B---/13-------------------------------13~-------------------------------
G-----------------------------------------------------------------------
D-----------------------------------------------------------------------
A-----------------------------------------------------------------------
E-----------------------------------------------------------------------


e----------------------------------------11-----------------------------
B---13--/--18~------18~--18~-------------11-----------------------------
G----------------------------------------12-----------------------------
D----------------------------------------13-----------------------------
A-----------------------------------------------------------------------
E-----------------------------------------------------------------------


Part 1

e-----------------------------------------------------------------------
B--------4~----------4-6-/8-6-4-6.--------------------------------------
G---/5------------------------------5~----------------------------------
D-----------------------------------------------------------------------
A-----------------------------------------------------------------------
E-----------------------------------------------------------------------

20210709

NORMAN BLAKE - RANDALL COLLINS TAB


Norman Blake - Randall Collins acoustic cover played by Riko Hill
It's in standard tuning with Capo on the 3rd fret
Download the TAB under the video



RANDALL COLLINS TAB

PDF + GUITAR PRO >>

Intro

e---0--------0-----0-0-------0---0-0-0-0-----0-----0-0-------0----------
B----0-------0-----0-0-------0---0-0-0-0-----0-----0-0-------0-------0--
G-----0------0-----0-0-------0---0-0-0-0-----0-----0-0-------0-------0--
D------2-----2-------2-------2---2-2-2-2-----2-------2-------2---2------
A-------2------------------------2---2---0h2---------------------2------
E--------0---------------0-------0---0-------------------0-------0------


e-------------------------------3-3-----3-------3-3-----2-----2-2-2-----
B---0.--0.----------------------0-0-----0-------0-0-----3-----3-3-3-----
G---4.--2.--0-----0-------------0-0-----0-------0-0-----2-----2-2-2-----
D-------------0h2---0-----------0-------0---0---0-------0-------0-------
A---------------------0h2-----------0h2-------2-----0-------------------
E---------------------------3-------------------------------------------


e-------------------------------0-0-0---0-0-2---2-2-----0-0-------------
B-------0-0-----0-0-------------0-0-1---1-1-3---3-3-----0-0-------------
G-------0-0-----0-0-------------0-0-0---0-0-2---2-2-----0-0-------------
D-------0-0-0---0-0---------2---2-2-2---2-2-0---0---2---2-2-------------
A---0h2------------0h1p0----2---2---3---3---0-------2---2---------------
E-----------------------3---0---0---3---------------0---0---0-2-3-4-----

20210630

STING - FRAGILE TAB (LIVE 2021)


Sting plays Fragile with a single acoustic guitar live in 2021
It's in standard tuning and there is a nice solo at 1:38
Download the TAB under the video



STING - FRAGILE TAB

PDF + GUITAR PRO >>

Intro

e-----------------------------------------------------------------------
B---12--------10.--8---8.--12---12.----8---\-----7.--5---0.--8---8.-----
G-----------------------------------------------------------------------
D---12------10-----9-------12----------9---\---7-----5-------9----------
A------------------------------------0-------0--------------------------
E---0-----0-------------------------------------------------------------


e-----------------------------------------------------------------------
B-----8---------7.--5---5.--4---4.---7---------5.--8~-------------------
G-----------------------------------------------------------------------
D-----9-------7-----5-------4--------7-------5-----9--------------------
A-----------------------------------------------------------------------
E---7-------7----------------------0-------0----------------------------


e-----------------------------------------------------------------------
B----12---\-----10.--8---8.--12---12.----8---\-----7.--5---0.--8---8.---
G-----------------------------------------------------------------------
D----12---\---10-----9-------12----------9---\---7-----5-------9--------
A--------------------------------------0-------0------------------------
E---0-------0-----------------------------------------------------------

20210621

BILLY STRINGS - MAKE ME A PALLET ON THE FLOOR TAB


Billy Strings plays Make Me a Pallet on the Floor in his Solo Livestream (1-6-2020)
It's in standard tuning with CAPO on the 4th fret
Download the TAB under the video



MAKE ME A PALLET ON THE FLOOR TAB

PDF + GUITAR PRO >>

Intro

e---------------------1-------1-----0-----0-----------------------------
B-------------------1-------1---3/4-----3-------------------------------
G-------0---1---2-------2-2-----------------2p0-------------------------
D-----------------------------------------------------------------------
A-----------------------------------------------------------------------
E-----------------------------------------------------------------------


e-----------------------0-----1-1-1-------------------------------------
B---1-----1-------1-----1---1-1-1-1-------------------------------------
G-----0h2---0-----------0---0-2-2-2-------------------------------------
D-------------2p0-------2---2-------------------------------------------
A-------------------3---------------------------------------------------
E-----------------------------------------------------------------------


e---1.---1-------1-1-1.---1---------0-----------------------------------
B---4.---3---1---1-1-4.---3---1-----------------------------------------
G--------------2----------------0h2-------------------------------------
D-----------------------------------------------------------------------
A-----------------------------------------------------------------------
E-----------------------------------------------------------------------

20210611

PART OF YOUR WORLD FINGERSTYLE TAB (KANAHO)


The Little Mermaid - Part of Your World acoustic fingerstyle guitar cover by Kanaho
It's arranged in DADGAD tuning with Capo on the 3rd fret
Download the TAB under the video



ALAN MENKEN PART OF YOUR WORLD ACOUSTIC FINGERSTYLE TAB

GUITAR PRO + PDF >>

Intro

d---------0-------0-------2-------2-------0-------0-------2-------2-----
A-----0h2-----0h2-----2h4-----2h4-----0h2-----0h2-----2h4-----2h4-------
G---0-------0-------2-------2-------0-------0-------2-------2-----------
D-----------0---------------2---------------0---------------2-----------
A-------------------0-------------------------------0-------------------
D---5-------------------------------5-----------------------------------


d------------------------------------2----------------------------------
A---2--4--5--5--------------4-/5----------------------------------------
G---------0-----------0-----------2-----------2-------------------------
D------0-----------0-----------2-----------2----------------------------
A---------------2-----------0-----------4-------------------------------
D---5-------------------------------------------------------------------


d------------------------------------2--2-------------------------------
A---2---4----5--------4--5--4---5---------------------------------------
G---------0-----------0-----------2-----------2-------------------------
D------0-----------0-----------2-----------2----------------------------
A---------------2-----------0-----------4-------------------------------
D---5-------------------------------------------------------------------