20211023

LEDWARD KAAPANA - SALOMILA TAB (LIVE WITH FRAN GUIDRY)


Led Kaapana & Fran Guidry play Salomila slack key guitar song live in Walnut Creek
It's in Open G tuning and Led Kaapana's guitar line is transcribed
Download the TAB under the video



LED KAAPANA - SALOMILA TAB

PDF + GUITAR PRO >>

d----9-----9------10-9-----0---5-------9-----9------10-9-----0---5------
B----------------------8---------------8-----------------8--------------
G--------7---/9--------------4-----4/7-7---7---/9--------------4-----5--
D------0--------0--------0-------0-------0--------0--------0-------0----
G--0-------0---------0-------0-------0-------0---------0-------0--------
D-----------------------------------------------------------------------


d-----7-----7-9--------12---10-9-7---0---9---0---0-4-5-------0-------0--
B------------------------------------------8-------------0-------0------
G---------5------/11---------------5/7---------5-----------0------------
D-------0-------0---------0--------0-------0-------0---------------0----
G------------------------------------------------------0-------4--------
D---0-------0--------0---------0-------0-------0------------------------


d-----2---2p0---0-4-5-------5-------0-----------------------------------
B-------------1---------0-------0---------------------------------------
G-------------------------0---------------------------------------------
D-------0---------0---------------0-------------------------------------
G---------------------0-------0-----------------------------------------
D---0---------0---------------------------------------------------------

20211017

ACOUSTICIAN NOVEMBER RAIN SOLO TAB


Guns N Roses - November Rain acoustic guitar solo cover by Acoustician
It's in standard tuning with a rhythm guitar backing track
Download the TAB under the video



NOVEMBER RAIN ACOUSTIC SOLO TAB


e----------------------7-----------------------------------7------------
B---7/9~-------9p7-9-----9(10)(9)---7---7h9~-------9p7-9-----9(10)(9)\--
G---x---------------------------------8---------------------------------
D---x-------------------------------------------------------------------
A-----------------------------------------------------------------------
E-----------------------------------------------------------------------


e-------------------7~------\-------------------------------------------
B---4-(5)(4)~-------x---------4(5)(4)(5)---(4)~-----\---------7---------
G-------------------x---------------------------------6p4-6/8--\6---4.--
D-------------------x---------------------------------------------------
A-----------------------------------------------------------------------
E-----------------------------------------------------------------------


e--------------------7--------------------------------------------------
B---9~-------9p7-9-----9(10)(9)---7---7h9~-------9p7-9--/12-12/14~--12.-
G---x-------------------------------8-----------------------------------
D---x-------------------------------------------------------------------
A-----------------------------------------------------------------------
E-----------------------------------------------------------------------

20211008

CORDOBA MINI II PADAUK GUITAR DEMO TAB (CHASKA POTTER)


Chaska Potter plays a relaxing guitar song with a Cordoba Mini II Padauk
Nice acoustic fingerpicking guitar song in standard tuning
Download the TAB under the video



CHASKA POTTER - CORDOBA MINI II PADAUK GUITAR DEMO TAB

PDF + GUITAR PRO >>

e-----------------------------------------------------------------------
B---5-----------12-----------7------------------------------------------
G-----------------------------------------------------------------------
D-----------------------------------------------------------------------
A---3-----------10-----------5------------------------------------------
E-----------------------------------------------------------------------


e-----------------------------------------------------------------------
B---5-----------12-----------7------------------------------------------
G-----------------------------------------------------------------------
D-----------------------------------------------------------------------
A---3-----------10-----------5------------------------------------------
E-----------------------------------------------------------------------


e-----------------------------------------------------------------------
B---------0-----------0-----------3-----------3-------------------------
G-------5---5-------5---5-------0---0-------0---0-----------------------
D-----5-------5---5-------5---0-------0---0-------0---------------------
A---3-----------3-----------2-----------2-------------------------------
E-----------------------------------------------------------------------

20210930

GHOST RIDERS IN THE SKY TAB (GEOFF REEVES)


Stan Jones - Ghost Riders in the Sky instrumental guitar cover by Geoff Reeves
Vintage instrumental guitar song played with a Fender Stratocaster
Download the TAB under the video



GHOST RIDERS IN THE SKY TAB

PDF + GUITAR PRO >>


e-----------------------------------------------------------------------
B-----------------------------------------------------------------------
G-----------------------------------------------------------------------
D-----------------------------------------------------------------------
A-------0----0-0---2---3----3-3---0-------------------------------------
E---0---------------------------------3----3-3---0---3~-----------------


e-----------------------------------------------------------------------
B-----------------------------------------------------------------------
G-----------------------------------------------------------------------
D---------------------------------0---2----2-2-------2~-----------------
A-------0----0-0---2---3----3-3------------------3----------------------
E---0-------------------------------------------------------------------


e-----------------------------------------------------------------------
B-----------------------------------------------------------------------
G-----------2---2----1/2------------------------------------------------
D---2---2------------------2---2-------/2----2-2------------------------
A--------------------------------------------------3---0~---------------
E-----------------------------------------------------------------------

20210920

BILLY STRINGS - DON'T LET YOUR DEAL GO DOWN TAB


Billy Strings plays Don't Let Your Deal Go Down by Doc Watson (Billy's Insta version)
It's in standard tuning with CAPO on the 3rd fret
Download the TAB under the video



DON'T LET YOUR DEAL GO DOWN TAB

PDF + GUITAR PRO >>

Intro

e-------------------------------------------5-5-----3---3-3-3-----------
B---------------------------------------2-2-2-2-x-x-2---2-2-2-----------
G---------------------------------------2-2-2-2-x-x-2---2-2-2-----------
D-----------0---1---2-------------------2---2---x-x-2---2---2-----------
A-------3---------------3---2---1---0-----------------------------------
E-----------------------------------------------------------------------


e---0-1-2-0-2-5-2-----------x---x-x-0-2-3-0-1-0-------------------------
B-----------------3-0---3---3---3-3-------------3-1-0-------------------
G---------------------2-----2---2-2-------------------2-0---------------
D---------------------------0---0-------------------------2-0---------0-
A-------------------------------------------------------------2---0-2---
E---------------------------------------------------------------3-------


e-----------------------0---------------5-5-5-5-----3---3-3-3-3-0-0-----
B-----------------0-1---1---------------2-2-2-2-x-x-2---2-2-2-2-0-0-----
G-------------0-2-------0---------------2-2-2-2-x-x-2---2-2-2-2-0-------
D-------0-1-2-----------2---------------2---2---x-x-2---2---2-----------
A---3-------------------3---2---1---0-----------------------------------
E-----------------------------------------------------------------------