20191205

LAURENCE JUBER IN MY LIFE TAB (NORMAN'S RARE GUITARS)


Laurence Juber plays In My Life by the Beatles live at Norman's Rare Guitars
He is playing a 1928 Martin 000-45 acoustic guitar in standard tuning
Download the TAB under the video



LAURENCE JUBER IN MY LIFE TAB

GP5 + GP6 + PDF >>

Part 1

e------------10--------------------9~-----------------------------------
B---/7----------------7---8-/-10---10~----------------------------------
G---/7---7------------7---9-/-11---9~-----------------------------------
D----0------------0-----------------------------------------------------
A------------------------------------------0---0-------0---0-------0----
E-----------------------------------------------------------------------


e------------10--------------------9~-----------------------------------
B---/7----------------7---8-/-10---10~-----------------------------0----
G---/7---7------------7---9-/-11---9~--------------------------2--------
D----0------------0-----------------------------------------------------
A------------------------------------------0---0-------0----------------
E-----------------------------------------------------------------------


e-------------------0-------2-------5---2-------------------------------
B---5-------3-------------------0---2-------2-------5-------7-----------
G---2---2-------2-------------------2-----------2-/-5-------5-----------
D---0-------------------0---------------2-----------5-------7-----------
A---------------------------------------------------5-------------------
E-------------------0---------------2-----------------------------------


20191130

MAKE YOU FEEL MY LOVE TAB (ACOUSTIC COVER BY ORTOPILOT)


Bob Dylan - Make You Feel My Love acoustic cover played by ortoPilot
It's arranged in standard tuning with Capo on the 7th fret
Download the TAB under the video



MAKE YOU FEEL MY LOVE ACOUSTIC TAB

GP5 + GP6 + PDF >>

- Capo on the 7th fret -

Intro

e-----------------------------------------------------------------------
B-----------1h3.-1h3.-1h3-------1p0-----3-------------------3---x-3-x---
G-----------0----0----0---------0-------2-------2.--2-----------x-2-x---
D-----------0----0----0-------------0---0-------4.--4---------4-x-4-x---
A-----------------------------------------------------------------------
E---3---------------------------------0-2-------2.--2-----------x---x-0-


e-----------------------------------------------------------------------
B---------------3-3-3---1---1p0-----1-----3-x---1-------0---------------
G---2-----------2-2-2---0---0-------0-----0-x---0-------0---------0-----
D---3---------------------------0---2-----2-x---2-----------2---2-------
A---------------------------------0-3-------x-3---------------3---------
E---1-------------------------------------------------------------------


e-----------------------------------------------------------------------
B-----------0h1--1---1---0---0-------------3-x---3~-------x-3-x---------
G--------------------------------2.--2/4-----x---0--------x-0-x---------
D---1-------------------------------------------------------------------
A---3---------------------------------------------------------x-0-------
E------------------------------------3-------x-3----------x-------------

20191127

BILLY IDOL WHITE CHRISTMAS TAB (GUITAR CHORDS)


Billy Idol - White Christmas from the album called Happy Holidays (2007)
Download the TAB under the video



WHITE CHRISTMAS TAB

GP5 + GP6 + PDF >>


I'm dreaming ...

e---8---8---8---8---8---8---8---8---------------------------------------
B---8---8---8---8---8---8---8---8----8---8---8---8---8---8---8-----7----
G---9---9---9---9---9---9---9---9----7---7---7---7---7---7---7-----6----
D---10--10--10--10--10--10--10--10---9---9---9---9---9---9---9-----8----
A---10--10--10--10--10--10--10--10--10--10--10--10--10--10--10-----9----
E---8---8---8---8---8---8---8---8---------------------------------------


Just like the ones ...

e-----------------------------------8---8---8---8---8---8---8---8-------
B---6---6---6---6---6---6---6---6---8---8---8---8---8---8---8---8-------
G---5---5---5---5---5---5---5---5---9---9---9---9---9---9---9---9-------
D---7---7---7---7---7---7---7---7---10--10--10--10--10--10--10--10------
A---8---8---8---8---8---8---8---8---10--10--10--10--10--10--10--10------
E-----------------------------------8---8---8---8---8---8---8---8-------


 tree - tops glisten

e---8---8---8---8-------------------------------------------------------
B---8---8---8---8----3---3---3---3---1---1---1---1---1---1---1---1------
G---9---9---9---9----3---3---3---3---2---2---2---2---1---1---1---1------
D---10--10--10--10---2---2---2---2---3---3---3---3---3---3---3---3------
A---10--10--10--10---3---3---3---3---3---3---3---3---3---3---3---3------
E---8---8---8---8-------------------------------------------------------


20191123

BEYONCE HALO FINGERSTYLE TAB


Beyonce - Halo acoustic fingerstyle guitar cover played by Richard Armstrong
It's arranged in standard tuning with Capo on the 2nd fret
Download the TAB under the video



BEYONCE HALO FINGERSTYLE TAB

GP5 + GP6 + PDF >>

- Capo on the 2nd fret -

Intro

e-----------------------------------------------------------------------
B---0---------------1---------------0-----------------------------------
G---0---------------2---------------0--------------0--------------------
D--------------------------------------------------2--------------------
A-------------------0------------------------------3--------------------
E---3-------------------------------0-----------------------------------


e-----------------------------------------------------------------------
B---0-------0-------0-------0-----0-1-------1-------1---0---0h1p0-------
G-------0-------0-------0-----0h2-------2-------2----------------2-0----
D-----------0---------------0---------------2-----------2---------------
A-----------------------------------0---------------0-------0-----------
E---3---------------3---------------------------------------------------


e-----------------------------------------------------------------------
B-----------------------------------------------------------------------
G---0-------0-------0-------0h2-0---------------------------------------
D-------2-------2-------2---------4-2-------2-------0--0h2--0-----------
A-----------2---------------2-----------3-------3---3-----------3-------
E---0---------------0---------------------------------------------------


20191117

BILLY STRINGS BLACK MOUNTAIN RAG TAB (ACOUSTIC GUITAR SOLO)


Billy Strings plays Black Mountain Rag with an old Gibson J-35 acousic guitar
It's in standard tuning with Capo on the 2nd fret
Download the TAB under the video



BLACK MOUNTAIN RAG TAB

GP5 + GP6 + PDF >>

Part 1

e-------0-0-----0-0-------0-----0-0-------0-------0-3-----0-0---0-------
B-------1-1-----1-1-------1-----1-1-------1-------1-1-----1-1---3---/---
G---0---0-------0-0-------0-----0-0-------0-------0-0-----0-------------
D---------------2---------------2-------------------2-------------------
A-----------3-------2h3-----3-------2h3-----3-------3-------------------
E-----------------------------------------------------------------------


e-----0-5-0-3-5-3-----0-5-0-3-5-3-----0-5-0-3-5-3-----0-----------------
B--/5-------------4-5-------------4-5-------------4-5---1-------1-3/----
G---------------------------------------------------------2-0-2---------
D-----------------------------------------------------------------------
A-----------------------------------------------------------------------
E-----------------------------------------------------------------------


e-----0-5-0-3-5-3-----0-5-0-3---3-----0-5-0-3-5-3-----0---------0-------
B--/5-------------4-5-------------4-5-------------4-5---1-------1-------
G---------------------------------------------------------2-0-2---------
D-----------------------------------------------------------------------
A-----------------------------------------------------------------------
E-----------------------------------------------------------------------