20181216

KFIR OCHAION SOMEONE LIKE YOU TAB (INSTRUMENTAL ELECTRIC GUITAR TAB)


Adele - Someone Like You electric guitar cover played by Kfir Ochaion
Awesome lead guitar playing with backing track
Download the TAB under the video



KFIR OCHAION SOMEONE LIKE YOU TAB

GP5 + GP6 + PDF >>

Verse

e-----------------------------------------------------------------------
B-----------2/5~-------------\2~----------------------------------------
G---------------------------------------------4\2~----------------------
D-----------------------------------------------------------------------
A-----------------------------------------------------------------------
E-----------------------------------------------------------------------


e-----------------------------------------------------------------------
B-----------/5---5-2~---------------------------------------------------
G----------------------------4\2~---------------------------------------
D-----------------------------------------------------------------------
A-----------------------------------------------------------------------
E-----------------------------------------------------------------------


e-----------------------------------------------------------------------
B------------5---5-2~---------------------------------------------------
G----------------------------/4\2~--------------------------------------
D-----------------------------------------------------------------------
A-----------------------------------------------------------------------
E-----------------------------------------------------------------------


20181208

THE POWER OF YOUR LOVE TAB (ACOUSTIC FINGERSTYLE)


Hillsong - The Power Of Your Love fingerstyle guitar cover by Marcel Tiemensma
Amazing classical guitar arrangement in standard tuning
The first part up to 1:47 is transcribed
Download the TAB under the video



THE POWER OF YOUR LOVE TAB

GP5 + GP6 + PDF >>

Part 1

e-----------------------------------------------------------------------
B-------9-10-12---7---5---5-7-9-----7-----------------------------------
G-------------------------------8-9-------------------------------------
D-----------------------------------------------------------------------
A-----------------6---4-------------------------------------------------
E---0-------------------------7-----------------------------------------


e---------------------0-------9---7-------------------------------------
B---5-----5-7-5-------2-------7---7-------------------------------------
G---6---8---------4---2-------8---8-------------------------------------
D---------------6-------------------------------------------------------
A---0-------------------------------------------------------------------
E-------------4-------2---2-2-7-----------------------------------------


e-----------------0-----------------------------------------------------
B-------------7.--0----------------0------------------------------------
G-----------4-----1-----1---1-1-2---------------------------------------
D-------6-7-----------2---2-2-------------------------------------------
A-----------6-----4---------4-------------------------------------------
E---0-------------------------------------------------------------------


20181203

RELEASE ME TAB (INSTRUMENTAL GUITAR TABS)


Engelbert Humperdinck - Release Me instrumental guitar cover by Burns Ernst
Easy guitar instrumental with backing track
Download the TAB under the video



RELEASE ME INSTRUMENTAL GUITAR TAB

GP5 + GP6 + PDF >>

Part 1

e-----------------------------------------------------------------------
B-----------------------------------------------------------------------
G---5~----------4-3--2-----5---3----------------------------------------
D-----------------------------------------------------------------------
A---------------------------------5~------------------------------------
E-----------------------------------------------------------------------


e-----------------------------------------------------------------------
B------------------------------------------1----------------------------
G------------------------------3~------3-----2~-------------------------
D-----0---1-2~----------0-----------------------------------------------
A---------------------------3-------------------------------------------
E-----------------------------------------------------------------------


e-----------------------------------------------------------------------
B-----------------------------------------------------------------------
G---/5---5~----------4-3--2----5--3-------------------------------------
D-----------------------------------------------------------------------
A-------------------------------------5~--------------------------------
E-----------------------------------------------------------------------


20181124

KNOCKIN ON HEAVENS DOOR ACOUSTIC SOLO TAB


Bob Dylan - Knockin' On Heavens Door acoustic cover played by Junik
There is a nice acoustic guitar solo around 2:25 in this video
Half-step down tuning, download the TAB below



KNOCKIN ON HEAVENS DOOR ACOUSTIC SOLO TAB

GP5 + GP6 + PDF >>

 ~ 2:25 - 2:50

eb----------------------------------------------------------------------
Bb------3h5-3~-------5--3--5/8-/10~-------------------------------------
Gb----------------------------------------------------------------------
Db----------------------------------------------------------------------
Ab----------------------------------------------------------------------
Eb----------------------------------------------------------------------


eb----------------------------------------------------------------------
Bb---8-10-8-10(12)-10(12)---------(10)p8--------------------------------
Gb----------------------------------------------------------------------
Db----------------------------------------------------------------------
Ab----------------------------------------------------------------------
Eb----------------------------------------------------------------------


eb-----------7-/12---10-------------------------------------------------
Bb------8-10--------------12---10-8h10~---------------------------------
Gb----------------------------------------------------------------------
Db----------------------------------------------------------------------
Ab----------------------------------------------------------------------
Eb----------------------------------------------------------------------


20181118

B'Z FRICTION TAB (ELECTRIC GUITAR TABS)


B'z - Friction electric guitar cover played by "Terrani"
Great cover with backing track
Download the TAB below



B'Z FRICTION TAB

GP5 + GP6 + PDF >>

Intro

e-----------------------------------------------------------------------
B-----------------------------------------------------------------------
G----/4-2---------------------------------------------------------------
D---------4-2-----------4-0-4-2-0------------4-0-4-2-0------------------
A-------------5-4-2-0-2-----------4'-0-2-0-2-----------4'-0-------------
E-----------------------------------------------------------------------


e-----------------------------------------------------------------------
B-----------------------------------------------------------------------
G-----------------------------------------------------------------------
D---------4-0-4-2-0------------4-0-4-2-0--------------------------------
A---2-0-2-----------4'-0-2-0-2-----------4'-0---------------------------
E-----------------------------------------------------------------------


e-----------------------------------------------------------------------
B---12-----------10-----------7-----------5-----------------------------
G---14(16)~~~----12(14)~~~----9(11)~~~----7(9)~~~-----------------------
D-----------------------------------------------------------------------
A-----------------------------------------------------------------------
E-----------------------------------------------------------------------