20181014

NOW AND FOREVER FINGERSTYLE TAB (TOMI PALDANIUS)


Richard Marx - Now And Forever acoustic fingerstyle guitar cover by Tomi Paldanius
It's arranged in standard tuning and no Capo is used
Download the TAB under the video



NOW AND FOREVER FINGERSTYLE TAB

GP5 + GP6 + PDF >>

Intro

e-----------3-----------------------------------3-----------------------
B---0-------0-------0---1--/3.--1---------------1-----------1p0---------
G---0---------------0---0-------0-----------0-------------------0-------
D-------0-------0-----------------------2---------------2---------------
A-----------------------------------------------------------------------
E---3-------------------------------3-----------------------------------


e-----------3-----------------------------------3-----------------------
B---0-------0-------0---1--/3.--1---------------1-----------------------
G---0---------------0---0-------0-----------0---------------0-----------
D-------0-------0-----------------------2---------------2-------2-------
A-----------------------------------------------------------------------
E---3-------------------------------3-----------------------------------


Part 1

e-----------------------------------------------------------------------
B-----------------------------------0-------0-------------------0-------
G-----------0-------------0-----2-----------0---------------2-----------
D-------0-------0---4-------------------2-------2-------2---------------
A-------------------5---------------------------------------------------
E---3---------------2---------------0---------------0-------------------


20181007

JOHN HIATT NO WICKED GRIN TAB (ACOUSTIC)


John Hiatt plays No Wicked Grin live at WUKY radio station
Fingerpicking acoustic guitar song in standard tuning with Capo on the 2nd fret
Download the TAB under the video



JOHN HIATT NO WICKED GRIN TAB

GP5 + GP6 + PDF >>

 - CAPO on the 2nd -
Intro

e---0---1-3-----------------------0-------------------------------------
B---------------3-----------1---3-------------1-------------------------
G-------------0-------0---0-----------2-----------0---------------------
D-----------2-------0---0-------2---0-------3---3-----------------------
A---3-----------------------0-------------------------------------------
E---------------3-----------------------1-------------------------------


e-----------------------------------------------------------------------
B-------1-------0---1---3---------1-----1-------------------------------
G-------0-----0-----------0-----0-----0-----------0---------------------
D-------2---2-----------------3-----3-------2---2-----------------------
A---3---------------0---2---3-----------3-------------------------------
E---------------3-------------------------------------------------------


Verse

e---0---1-3-------------------------0-----------------------------------
B---------------3-----------1---3-------------1-------------------------
G-------------0-----------0-------------2---------0---------------------
D-----------2-------0---0-------------------3---3-----------------------
A---3-----------------------0-------------------------------------------
E---------------3-----------------------1-------------------------------


20180930

BILLY GIBBONS THUNDERBIRD SOLO TAB (LIVE FROM DARYL'S HOUSE)


Billy Gibbons (ZZ Top) and friends play Thunderbird live at Daryl's House
There is an amazing blues solo around 1:30 ...
Download the TAB under the video




BILLY GIBBONS THUNDERBIRD SOLO TAB

GP5 + GP6 + PDF >>

Solo at 1:30

e-----------------------------------------------------------------------
B------11(13)~~~--------------------------------------------------------
G-----------------------------------------------------------------------
D-----------------------------------------------------------------------
A-----------------------------------------------------------------------
E-----------------------------------------------------------------------


e---8------------------------------8------------------8-------------8.--
B-----11p8----8----11(13)~---------------------11-------11(13)~---------
G----------10-----------------------------------------------------------
D---------------10------------------------------------------------------
A-----------------------------------------------------------------------
E-----------------------------------------------------------------------


e----------8------------------8-----------------------------------------
B---11'-------11(13)~-----------11p8------------------------------------
G------------------------------------10(12)-----10--8~------------------
D-----------------------------------------------------------------------
A-----------------------------------------------------------------------
E-----------------------------------------------------------------------


20180923

MAIDEN ACOUSTIC JUDAS BE MY GUIDE TAB (ACOUSTIC GUITAR SOLO TABS)

Maiden Acoustic - Judas Be My Guide - the main solo part starts about 2:22
Great acoustic guitar solo in standard tuning
Download the TAB under the video



MAIDEN ACOUSTIC JUDAS BE MY GUIDE SOLO TAB

GP5 + GP6 + PDF >>

(2:22 - 2:45)

e-----------------------------------------------------------------------
B---5h6p5---------------------------------------------------------------
G---------5-------------------------------------------------------------
D-----------5h7-5---3---2---3---0---------------------------------------
A-----------------------------------------------------------------------
E-----------------------------------------------------------------------


e---------------------------------------8-------------------------------
B---------------1--/3---3--/6---5---6-------5---6---5h6p5---------------
G---------0h2h3-------------------------------------------5---7~~~------
D---0h2h3---------------------------------------------------------------
A-----------------------------------------------------------------------
E-----------------------------------------------------------------------


e-----5-8.--6-5h6p5---5-----------------5h6/8-8-10~---\-----------------
B----6--------------8----6--8--5--6--8----------------------------------
G---7-------------------------------------------------------------------
D-----------------------------------------------------------------------
A-----------------------------------------------------------------------
E-----------------------------------------------------------------------


20180916

YOU'LL NEVER WALK ALONE INSTRUMENTAL GUITAR TAB (DAVE MONK)


You'll Never Walk Alone instrumental guitar cover played by Dave Monk
Easy guitar instrumental with backing track
Download the TAB under the video



YOU'LL NEVER WALK ALONE INSTRUMENTAL TAB

GP5 + GP6 + PDF >>


e-----------------------------------------------------------------------
B-----5-3---------------------5-3---------------------------------------
G---------5~----------------------5~------------------------------------
D-----------------------------------------------------------------------
A-----------------------------------------------------------------------
E-----------------------------------------------------------------------


e-----------------------------------------------------------------------
B---5/--6-/8~-----------------------------------------------------------
G------------------------------7---7~-----------------------------------
D-----------------------------------------------------------------------
A-----------------------------------------------------------------------
E-----------------------------------------------------------------------


e-----------------------------------------------------------------------
B---5h6-6~---------------------8-6-5~-----------------------------------
G-----------------------------------------------------------------------
D-----------------------------------------------------------------------
A-----------------------------------------------------------------------
E-----------------------------------------------------------------------