20190322

HELP ME MAKE IT THROUGH THE NIGHT TAB (FINGERSTYLE)


Help Me Make It Through The Night fingerstyle guitar cover by Chris Crouch
It's arranged in standard tuning and no Capo is used
Download the TAB under the video



HELP ME MAKE IT THROUGH THE NIGHT FINGERSTYLE TAB

GP5 + GP6 + PDF >>

e-----------2-2h3--2--0--2--------2-----------2-------------------------
B---------3-----------------------3-----------2-------------------------
G-------2-------------------2--------2-----2-----2----------------------
D---------------------------0-----------0-------------------------------
A-----------------------------------------------------------------------
E-----------------------------------------------------------------------


e---2---------5---------------------------------------------------------
B---1-----/7-----7~-----5-7-5.---3-----------------3--------------------
G---2----------------------------------0-----------2--------------------
D---0-------------------------------0-----------0-----------------------
A-----------------------------------------------------------------------
E--------------------------------3--------3--2--------2-----------------


e----------0--2--2/3--2--0--3-------------------------------------------
B----------0-------------------------2-----------3----------------------
G--------0---------------------------2----------------------------------
D------2--------------------------2-----2-----4-----4-------------------
A------------------------------0-----------0----------------------------
E---0-------------------------------------------------------------------


20190317

AVE MARIA NO MORRO INSTRUMENTAL GUITAR TAB


Ave Maria No Morro instrumental guitar cover played by Roy Björklund
Easy guitar instrumental with backing track
Download the TAB under the video



AVE MARIA NO MORRO INSTRUMENTAL GUITAR TAB

GP5 + GP6 + PDF >>

Part 1

e-------9-------9-----9------------------9-------9-----9.---------------
B---------9---------------8~---------------9---------------8--\---------
G---9---------9-----9----------------9---------9-----9------------------
D-----------------------------------------------------------------------
A-----------------------------------------------------------------------
E-----------------------------------------------------------------------


e-----------------------------------------------------------------------
B-----------------------------------------------------------------------
G-----------------------------------------------------------------------
D--------------------------2--2~---------222----------2-4-2-2-----------
A---2---222-2~-------2-1-2-------------------4~---------------3~--------
E-----------------------------------------------------------------------


e-----------------------------------------------------------------------
B-----------------------------------------------------------------------
G-----------------------------------------------------------------------
D---2-4-2---------------------------------------------------------------
A---------2--2~---------222~-----2-4-4/6-\--2~~~------------------------
E-----------------------------------------------------------------------

20190310

ACOUSTICIAN LAYLA SOLO TAB (JUHA JARVINEN)


Eric Clapton - Layla acoustic guitar solo cover played by Acoustician
It's in standard tuning with a rhythm guitar backing track
Download the TAB under the video



LAYLA ACOUSTIC SOLO TAB

GP5 + GP6 + PDF >>

e------5-5-----5.--5-5-----5--------------------------------------------
B------6-6-----6.--6-6-----6--------------------------------------------
G------------7-----------7-------7-5------------------------------------
D--------------------------------x---7-6-5-3-5p3------------------------
A--------------------------------x---------------5~---------/-----------
E-----------------------------------------------------------------------
                                       x x x

e-----------------------------------------------------------------------
B---/13-13-13-/13-13-13-/13-13-13-/13-13-13-/13-13-13-/13-13------------
G---/14-14-14-/14-14-14-/14-14-14-/14-14-14-/14-14-14-/14----14---------
D-----------------------------------------------------------------------
A-----------------------------------------------------------------------
E-----------------------------------------------------------------------


e--------------------------------10-12-10h12p10--10---------------------
B--------13-15.-------------10-13--------------13--13-10.--10.--10.-----
G---12h14--------12\10----12--------------------------------------------
D---------------------12------------------------------------------------
A-----------------------12----------------------------------------------
E-----------------------------------------------------------------------


20190303

TEARS IN HEAVEN TAB (BOYCE AVENUE)


Eric Clapton - Tears In Heaven acoustic guitar cover played by Boyce Avenue
It's arranged in half-step down tuning (the original one is in standard)
Download the TAB under the video



TEARS IN HEAVEN TAB

GP5 + GP6 + PDF >>

Part 1

eb----------------------------------------------------------------------
Bb--------------2h3p2----5-------5.--2-----------2-------2-------2------
Gb----------2--------2.--4-------4.--2-----------2-------2-------2------
Db----------------------------------------------------------------------
Ab------0---------------------------------------------------------------
Eb--0h2------------------4-----------2-------2-------2.--0---0-------0--


eb----------------------------------------------------------------------
Bb---3-------3-------3-------3-------2-------2-------2-------2----------
Gb---2-------2-------2-------1-------2-------2-------2-------2----------
Db----------------------------------------------------------------------
Ab-----------------------------------0---0-------0-------0--------------
Eb---2---2-------2---0---0---0---0-------------------------------0h2----


eb----------------------------------------------------------------------
Bb-----------2h3p2----5-------5.--2-----------2-------2-------2---------
Gb-------2--------2.--4-------4.--2-----------2-------2-------2---------
Db----------------------------------------------------------------------
Ab---0------------------------------------------------------------------
Eb--------------------4-----------2-------2-------2.--0---0-------0-----


20190224

KFIR OCHAION BRING ME TO LIFE TAB (INSTRUMENTAL ELECTRIC GUITAR TAB)


Evanescence - Bring Me To Life electric guitar cover played by Kfir Ochaion
Awesome lead guitar playing with backing track
Download the TAB under the video



KFIR OCHAION BRING ME TO LIFE TAB

GP5 + GP6 + PDF >>

Verse 1

e-----------------------------------------------------------------------
B---10(12)~-------10/12~---12(13)~-----(13)(12)p10~---12---p8~------\---
G-----------------------------------------------------------------------
D-----------------------------------------------------------------------
A-----------------------------------------------------------------------
E-----------------------------------------------------------------------


e-----------------------------------------------------------------------
B----/5-7-8---8-(10)~~~-------------------------------------------------
G-----------------------------------------------------------------------
D-----------------------------------------------------------------------
A-----------------------------------------------------------------------
E-----------------------------------------------------------------------


e-----------------------------------------------------------------------
B---12~-------12p10-13(15)---(15)(13)~-----12p10---12---p8~------\------
G-----------------------------------------------------------------------
D-----------------------------------------------------------------------
A-----------------------------------------------------------------------
E-----------------------------------------------------------------------