20180716

LOVE LIES ACOUSTIC TAB (JOT SINGH)


Khalid & Normani - Love Lies acoustic cover played by Jot Singh
Great singing with a single acoustic guitar
Download the TAB under the video



LOVE LIES ACOUSTIC TAB

GP5 + GP6 + PDF >>

Intro

e-----------------------------------------------------------------------
B-------------------------3.--------------------------------------------
G-------4---------4-----------------------------------------------------
D-----5---5-----5-------5-----------------------------------------------
A---7---------5-------3-------------------------------------------------
E-----------------------------------------------------------------------


e-----------------------------------------------------------------------
B-------------------------3-x-------------------------------------------
G-------4---------4---------x-------------------------------------------
D-----5---5-----5-------5---x-------------------------------------------
A---7---------5-------3-----x-------------------------------------------
E-----------------------------------------------------------------------


Verse

e-----------------------------------------------------------------------
B-------------------------3-x-------------------------------------------
G-------4---------4---------x-------------------------------------------
D-----5---5-----5-------5---x-------------------------------------------
A---7---------5-------3-----x-------------------------------------------
E-----------------------------------------------------------------------


20180709

BOBBY VINTON ROSES ARE RED INSTRUMENTAL GUITAR TAB


Bobby Vinton - Roses Are Red instrumental guitar cover played by Eric
Easy guitar instrumental with backing track
Download the TAB under the video



ROSES ARE RED INSTRUMENTAL TAB


Part 1

e-----------------------------------------------------------------------
B-----------------------------------------------------------------------
G------2---0~-----------------------------------------------------------
D-----------------3-3~-----2-2~-----------------------------------------
A-----------------------------------------------------------------------
E-----------------------------------------------------------------------


e-----------------------------------------------------------------------
B-----------------------------------------------------------------------
G------3--2-----0~------------------------------------------------------
D-------------2--------3-3~---------------------------------------------
A-----------------------------------------------------------------------
E-----------------------------------------------------------------------


e-----------------------------------------------------------------------
B-----------------------------------------------------------------------
G------5--3---2-2~-----0-0~-----------3---2h3p2-0-----------------------
D---------------------------------------------------3.------------------
A-----------------------------------------------------------------------
E-----------------------------------------------------------------------


20180630

TULSA TIME SOLO TAB (LIVE AT CROSSROADS GUITAR FESTIVAL 2007)

Eric Clapton, Sheryl Crow, Vince Gill and Albert Lee perform Tulsa Time
Live version recorded at Crossroads Guitar Festival 2007
Vince Gill's solo starts around 3:35 in this video
Download the TAB below


VINCE GILL TULSA TIME SOLO TAB

GP5 + GP6 + PDF >>

 ~ 3:30

e-----------------------------------------------------------------------
B-----------------------------------------------------------------------
G---7(9)-------(7)---(9)(7)(9)(7)--p5---5~------------------------------
D-----------------------------------------------------------------------
A-----------------------------------------------------------------------
E-----------------------------------------------------------------------


e--------------------------------------------8-------10(11)---(10)--p8.-
B---8(10)-------8p7p6----------------------------8---x------------------
G-----------------------8'--5---5~------/9------------------------------
D-----------------------------7-----------------------------------------
A-----------------------------------------------------------------------
E-----------------------------------------------------------------------


e-----------------------------------------------------------------------
B---10(11)(10)(11)(10)p8.--10(11)---10.--10--p8---8~-------\------------
G---x-------------------------------------------------------------------
D-----------------------------------------------------------------------
A-----------------------------------------------------------------------
E-----------------------------------------------------------------------


20180625

THE RECALLS NOBODY'S GUY TAB (ELECTRIC GUITAR TABS)


The Recalls - Nobody's Guy electric guitar line
Old school guitar playing in standard tuning
Download the TAB under the video



THE RECALLS NOBODY'S GUY TAB

GP5 + GP6 + PDF >>

Intro

e-------------------0---------------------------------------------------
B-----------------------------------------------------------------------
G---3'------------------(4)(3)-0----------------------------------------
D-----------------------------------------------------------------------
A-----------------------------------------------------------------------
E---0----------------------------3--------------------------------------


e--------------------------0--------------------------------------------
B-----------------------------------------------------------------------
G-------3'--3'--0---3(4)-----(4)(3)-0-----------------------------------
D-----------------------------------------------------------------------
A-----------------------------------------------------------------------
E---0---0---0---0---0-----------------3---------------------------------


e--------------------------0--------------------------------------------
B-----------------------------------------------------------------------
G-------3'--3'--0---3(4)-----(4)(3)-0-----------------------------------
D-----------------------------------------------------------------------
A-----------------------------------------------------------------------
E---0---0---0---0---0-----------------3---------------------------------


20180617

TOMMY AND PHIL EMMANUEL IRISH AND SCOTTISH MEDLEY TAB


Tommy and Phil Emmanuel play an Irish - Scottish Medley in Holland - 2001
Phil's guitar playing is fully transcribed + Tommy's chords and harmonies
Download the TAB under the video



IRISH AND SCOTTISH MEDLEY TAB

GP5 + GP6 + PDF >>

#1

e---0-------0-----------0-0h2-0-----0-------------3---------------------
B-----3-0h2---2-0---0h2---------0h2---2-0---0---0---0-------------------
G-----------------2-----------------------2---2-------2-----------------
D-----------------------------------------------------------------------
A-----------------------------------------------------------------------
E-----------------------------------------------------------------------


e-------0-----------0-0h2-0-----0---------------0-----------------------
B---0h2---2-0---0h2---------0h2---0---0-----------3---------------------
G-------------2---------------------1---2~------------------------------
D-----------------------------------------------------------------------
A-----------------------------------------------------------------------
E-----------------------------------------------------------------------


e-------0-----------0-0h2-0-----0-------------3-------------------------
B---0h2---2-0---0h2---------0h2---2-0---0---0---0-----------------------
G-------------2-----------------------2---2-------2---------------------
D-----------------------------------------------------------------------
A-----------------------------------------------------------------------
E-----------------------------------------------------------------------