20210110

RODRIGO RODRIGUEZ - THE PRAYER CLASSICAL GUITAR TAB (LIVE)


Rodrigo Rodriguez plays The Prayer live in Prague (Czech Republic) 2007
Amazing classical guitar song in DGDGBe (Open G6) tuning
Download the TAB under the video



RODRIGO RODRIGUEZ - THE PRAYER TAB

PDF + GUITAR PRO >>

Part 1

e-------5---------------3-------------7~--7---------------5~------------
B---3-------------------0---------------------------------5-------------
G---------------0---2-----------------------------5---7-----------------
D-----------0---------------------------------5-------------------------
G-------0---------------------------------5-----------------------------
D-----------------------------------------------------------------------


e---3---3-------2-------------------------------------------------------
B-------------------1---5-------3\--1-----------1---0-------------------
G---------------2---------------------------2-------0-------------------
D-----------0---------------4-----------0-------------------------------
G-----------------------5-----------0-----------------------------------
D-------0---------------------------------------------------------------


e-------5---------------3-------------7~--7---------------5~------------
B---3-------------------0---------------------------------5-------------
G---------------0---2-----------------------------5---7-----------------
D-----------0---------------------------------5-------------------------
G-------0---------------------------------5-----------------------------
D-----------------------------------------------------------------------

20210103

IT'S NOW OR NEVER INSTRUMENTAL GUITAR TAB (ERIC)


Elvis Presley - It's Now Or Never instrumental guitar cover played by Eric
Easy guitar instrumental with backing track
Download the TAB under the video



IT'S NOW OR NEVER TAB


Part 1

e-----------------------------------------------------------------------
B-------3.---3-----2----------------------2.---2------------------------
G--------------------2-2~------------------------4-\---0~---------------
D-----------------------------------------------------------------------
A-----------------------------------------------------------------------
E-----------------------------------------------------------------------


e-----------------------------------------------------------------------
B---2-2-----------------------------------------------------------------
G---------4------------------------------------0-2~---------------------
D-----------5~-------5~--------------2---4------------------------------
A-----------------------------------------------------------------------
E-----------------------------------------------------------------------


e-----------------------------------------------------------------------
B-----------------------------------3~----------------------------------
G---2---3~-----3~---------------0----------3-2~-------------------------
D-----------------------------------------------------------------------
A-----------------------------------------------------------------------
E-----------------------------------------------------------------------


20201223

ACOUSTICIAN NOTHING ELSE MATTERS SOLO TAB


Metallica - Nothing Else Matters acoustic guitar solo cover by Acoustician
It's in standard tuning with a rhythm guitar backing track
Download the TAB under the video



NOTHING ELSE MATTERS SOLO TAB

PDF + GUITAR PRO >>

e-----------------------------------------------------------------------
B---15-----------15-----------------------------------------------------
G---14(16)-------14(16)(14)-12~-----14.--12\11-12p11--11----------------
D---------------------------------------------------14--12/14~----------
A-----------------------------------------------------------------------
E-----------------------------------------------------------------------


e----------------------12-----------12----------------------------------
B-------------------12-----------12----15p12----12----------------------
G---12-14-12-14(16)-------14(16)-------------15----15p14p12--12---------
D----------------------------------------------------------14-----------
A-----------------------------------------------------------------------
E-----------------------------------------------------------------------


e-----------------------------------------------------------------------
B---14.--14-13-12~---\--------------------------------------------------
G---14.--14-13-12~---\--------------------------------------------------
D-----------------------------------------------------------------------
A-----------------------------------------------------------------------
E-----------------------------------------------------------------------

20201219

ALELA DIANE - DRY GRASS AND SHADOWS TAB (TOAD SESSION)


Alela Diane plays Dry Grass and Shadows live at Toad Session
Nice acoustic fingerpicking guitar song in standard tuning
Download the TAB under the video



DRY GRASS AND SHADOWS ACOUSTIC TAB

PDF + GUITAR PRO >>

Intro

e-----------------------------------------------------------------------
B-------3---------3-----3---------------6---------6-----6---------0-----
G-------------0---------------0---------------0---------------0---------
D-------0-------0-------0-------0-------0-------0-------0-------0-------
A-----------------------------------------------------------------------
E---3-------3-------3-------3-------3-------3-------3-------3-----------


e-----------------------------------------------------------------------
B-------0---------0-------0-------0-----0---------0-------0-------0-----
G-------------5-------5-------5---------------4-------4-------4---------
D-------0-------0-------0-------0-------0-------0-------0-------0-------
A-----------------------------------------------------------------------
E---3-------3-------3-------3-------3-------3-------3-------3-----------


e-----------------------------------------------------------------------
B-------3---------3-----3---------------6---------6-----6---------0-----
G-------------0---------------0---------------0---------------0---------
D-------0-------0-------0-------0-------0-------0-------0-------0-------
A-----------------------------------------------------------------------
E---3-------3-------3-------3-------3-------3-------3-------3-----------

20201212

THE SPOTNICKS OLD SPINNING WHEEL TAB


The Spotnicks - Old Spinning Wheel from their album released in 1997
Vintage instrumental guitar song
Download the TAB under the video



OLD SPINNING WHEEL TAB

PDF + GUITAR PRO >>


Intro

e-----------------------------------------------------------------------
B-----------------------------------------------------------------------
G-------------2-2-2-2-2-2-2-2-----2-2-----------------------------------
D-----------2-2-2-2-2-2-2-2-2-5-2-2-2-4-2-------------------------------
A-----0-3h4-------------------------------3-4---------------------------
E-----------------------------------------------------------------------


Part 1

e-------5---------------------------5-----------------------------------
B-----5-----7-(6)-(7)~------------5-----7-(6)-(7)~----------------------
G-----------------------------------------------------------------------
D-----------------------------------------------------------------------
A------- tremolo bar ---------------------------------------------------
E-----------------------------------------------------------------------


e-------5---------------------------------------------------------------
B-----5-----7-(6)-(7)~--------------------------------------------------
G-----------------------------------------------------------------------
D-----------------------------------------------------------------------
A-----------------------------------------------------------------------
E-----------------------------------------------------------------------