20220520

DAVID GRIER - RED HAIRED BOY TAB (LIVE)


David Grier - Red Haired Boy live at the Midwest Banjo Camp's Faculty Concert 2011
It's in Standard tuning with Capo on the 2nd fret
Download the TAB under the video



DAVID GRIER - RED HAIRED BOY TAB

PDF + GUITAR PRO >>

- Capo on the 2nd -

e-----------------------------------------------------------------------
B---------------------------0-1-3---3---------3-----3-----3-------------
G---0---------0-----0---0h2---------0-------0---------0---------0-------
D---------2p0-----0-----------------2-----2-------2-----2-----2---------
A-----------------------------------3---3-------3-----------3-----------
E-------3-------3-------------------------------------------------------


e---------------------------------0-------------------------------------
B---3-------------0h1---0---------------0---------1p0-------------------
G---0-----0-----0-----0-----0h2-----------------2-----2-0---------------
D---0---------0-------------3-----------------3-----------3-------------
A---x-----------------------3---3---3-------3---------------------------
E---3---3---3-----------------------------------------------------------


e-----------------------------------------------------0-2-3-------------
B-------------------0-1-3---3---------3-----3-----3---------------------
G-----0-----0---0h2---------0-------0-----0---0-----0-------------------
D---0-----0-----------------2-----2-------------2-----------------------
A---------------------------3---3-------3-------------------------------
E-------3---------------------------------------------------------------

20220514

GIRL FROM IPANEMA TAB (GUITAR CHORDS) STAN GETZ - JOAO GILBERTO


Stan Getz & João Gilberto - The Girl From Ipanema acoustic guitar chords (1963)
It's in Standard tuning based on this particular version
Download the TAB under the video



GIRL FROM IPANEMA TAB

PDF + GUITAR PRO >>

Intro

e-----------------------------------------------------------------------
B---4---4-----4-----4---4-----4-----4---4-----4-----4---4-----4---------
G---3---3-----3-----3---3-----3-----3---3-----3-----3---3-----3---------
D---3---3-----3-----3---3-----3-----3---3-----3-----3---3-----3---------
A-----------------------------------------------------------------------
E---4-------4-------4-------4-------4-------4-------4-------4-----------


Verse

e-----------------------------------------------------------------------
B---4---4-----4-----4---4-----4.----6.--6-----6.--6-----6-----6.--------
G---3---3-----3-----3---3-----3.----6.--6-----6.--6-----6-----6.--x-----
D---3---3-----3-----3---3-----3.----5.--5-----5.--5-----5-----5.--x-----
A-----------------------------------------------------------------------
E---4-------4-------4-------4-----x-6.------6-------6.------6-----------


e-----------------------------------------------------------------------
B---6.--6-----6.--------------------4.--4-----4.----5.--5-----5.--------
G---6.--6-----6.--x-5.--5-----5.--x-3.--3-----3.--x-4.--4-----4.--x-----
D---4.--4-----4.--x-4.--4-----4.--x-3.--3-----3.--x-4.--4-----4.--x-----
A-----------------------------------------------------------------------
E---6.------6-------5.------5-------4.------4-------5.------5-----------

20220508

RED RIVER ROCK TAB (GUITAR SOLO)


The Hurricanes - Red River Rock guitar cover played by John Alex
There is a classic vintage guitar solo between 0:57 and 1:15
Download this solo TAB under the video



RED RIVER ROCK SOLO TAB

PDF + GUITAR PRO >>

Solo

e-----------0-/3-3-3-3-0-0-0-0-/3-3-3-3-0-0-0-0-/3-3-3.---5.---5-5.-----
B-----2-2-2-2-/5-5-5-5-2-2-2-2-/5-5-5-5-2-2-2-2-/5-5-5.---5.---5-7.-----
G-----------------------------------------------------------------------
D-----------------------------------------------------------------------
A-----------------------------------------------------------------------
E-----------------------------------------------------------------------


e---5-8'---5--/-10---10----------10-----10-13'---13'---10---10--\-------
B---5-7'---5--/-10---10---10-----10h12--10-12'---12'---10---10--\-------
G-------------------------10h11-----------------------------------------
D-----------------------------------------------------------------------
A-----------------------------------------------------------------------
E-----------------------------------------------------------------------


e---5-5-8'-5-8'-5-8'-5--------------------------------------------------
B---5-5-7'-5-7'-5-7'-5-7.---5-------------------------------------------
G----------------------7.---5h6-----------------7-7-6-------------------
D-------------------------------7-----------6-9-------9-----------------
A-------------------------------------7---7-----------------------------
E-----------------------------------------------------------------------

20220501

MASSACHUSETTS INSTRUMENTAL GUITAR TAB (DAVE MONK)


Bee Gees - Massachusetts instrumental guitar cover played by Dave Monk
Easy guitar instrumental with backing track
Download the TAB under the video



MASSACHUSETTS INSTRUMENTAL TAB

PDF + GUITAR PRO >>

e-----------------------------------------------------------------------
B-----------------------------------------------------------------------
G-----------------------------------------------------------------------
D-----------------------------------------------------------------------
A--------------5/7-7~---------5~-----5----------------------------------
E---5~-----5-7--------------7----------7\5-5~---------------------------


e-----------------------------------------------------------------------
B-----------------------------------------------------------------------
G-----------------------------------------------------------------------
D-----------------------------------------------------------------------
A--------------5/7-7~---------5~-----5----------------------------------
E---5~-----5-7--------------7----------7\5-5~---------------------------


e-----------------------------------------------------------------------
B-----------------------------------------------------------------------
G----------------------------7~-------7~-------6\4-4~-------------------
D---4---5/7-7~-------4/7-7----------7--------7-7\5-5~-------------------
A-----------------------------------------------------------------------
E-----------------------------------------------------------------------

20220424

EL FAROL ACOUSTIC TAB


Carlos Santana - El Farol acoustic guitar cover played by The Kings of Lounge
The guitarists are Nick Cowen and Nick Merchant (both in standard tuning)
Download the TAB under the video



SANTANA EL FAROL ACOUSTIC TAB

PDF + GUITAR PRO >>


e-----8~----------------------------8-7~--------3-----------------------
B---5---------------5-6~----------------------3---3/5~------------------
G-----------------------------------------------------------------------
D-----------------------------------------------------------------------
A-----------------------------------------------------------------------
E-----------------------------------------------------------------------


e---5~----------------------------5-4-----------------------------------
B-----------------1/3~--------3-6------6--5h6p5--3---3h5p3h5~-----------
G---------------------------4----------------------5--------------------
D-----------------------------------------------------------------------
A-----------------------------------------------------------------------
E-----------------------------------------------------------------------


e-----8~----------------------------8-7~--------3-----------------------
B---5---------------5-6~----------------------3---3/5~----5/8~----------
G-----------------------------------------------------------------------
D-----------------------------------------------------------------------
A-----------------------------------------------------------------------
E-----------------------------------------------------------------------