20190915

ACOUSTICIAN FADE TO BLACK SOLO TAB (JUHA JARVINEN)


Metallica - Fade To Black acoustic guitar solo cover played by Acoustician
It's in standard tuning with a rhythm guitar backing track
Download the TAB under the video



FADE TO BLACK ACOUSTIC SOLO TAB

GP5 + GP6 + PDF >>


e-----------------------------------------------------------------------
B-----------------------------------------------------------------------
G-----------5-7-7/9-x-9~-----9~-----9~---\-7p5-7~-----------------------
D------/7-7-------------------------------------------------------------
A-----------------------------------------------------------------------
E-----------------------------------------------------------------------


e-----------------------------------------------------------------------
B-----5-5h6--5-----5h6--5-----5h6--5-----6/8~---------------------------
G---7-----------5----------5----------5---------------------------------
D-----------------------------------------------------------------------
A-----------------------------------------------------------------------
E-----------------------------------------------------------------------


e-------5---------------------------------------------------------------
B---6-8----8--6-6h8--6--5-5h6--5----5-----------------------------------
G---------------------------------7----7--5-----------------------------
D-------------------------------------------5---7-7~--------------------
A-----------------------------------------------------------------------
E-----------------------------------------------------------------------


20190907

SWV WEAK FINGERSTYLE GUITAR TAB


SWV - Weak acoustic fingerstyle guitar cover played by Rofel Angelo Pendon
It's arranged in standard tuning with Capo on the 5th fret
Download the TAB under the video



SWV WEAK FINGERSTYLE TAB

GP5 + GP6 + PDF >>

- Capo on the 5th fret -

Intro

e---0-------------------0-------0h1---------0---------------------------
B---------------3-------------------------------3-----------1-----------
G-----------------------------------------------------------------------
D-----------------------------------0-----------------------------------
A-----------------------------------------------------------------------
E---1---------------1-------------------------------3-------------------


e-----------------------------------------------------------------------
B---0--h1---------------1-----------0-----------------------------------
G---0-----------0-----------------------------------0-------0-----------
D-----------2-------------------2---------------------------------------
A---3-------------------------------3-----------------------------------
E---------------------------------------------------0-------x-----------


Verse

e-----------------------------------------------------------------------
B-----------------------------------------------------------------------
G-----------0---0-------0.------0-------0-------0-------0---------------
D---2--h3---------------------------------------------------------------
A-----------------------------------------------------------------------
E---0---------------x---0.------0-------------------x---0---------------


20190831

MY FUNNY VALENTINE CLASSICAL GUITAR TAB


Richard Rodgers - My Funny Valentine classical guitar cover by Tetsushige Yuguchi
It's arranged in standard tuning and no Capo is used
Download the TAB under the video



MY FUNNY VALENTINE TAB

GP5 + GP6 + PDF >>

Part 1

e---0--1--3-----------------0--1--3-------------------------------------
B---------------0-----------------------1-------------------------------
G------------0-----0-----------------2-----2----------------------------
D---------------------------------0-------------------------------------
A---------3-------------------------------------------------------------
E-----------------------------------------------------------------------


e---0--1--3-----------------0--1--0-------------------------------------
B---------------3--------------------------1----------------------------
G------------4-----4--------------------2-------------------------------
D---------2--------------------------3----------------------------------
A-----------------------------------------------------------------------
E---------------------------------3-------------------------------------


e---0--1--3-----------------0--1--3-------------------------------------
B---------------0-----------------------1-------------------------------
G------------0-----0-----------------2-----2----------------------------
D---------------------------------0-------------------------------------
A---------3-------------------------------------------------------------
E-----------------------------------------------------------------------


20190823

VELVET REVOLVER WISH YOU WERE HERE SOLO TAB (LIVE)


Velvet Revolver - Wish You Were Here live version with a great Slash guitar solo
It's in half step-down tuning and it's between 3:45 and 4:15 on this record
Download the TAB under the video



SLASH WISH YOU WERE HERE SOLO TAB

GP5 + GP6 + PDF >>

 (3:45 - 4:15)

   Em7 
eb---------------10-----------------------------------------------------
Bb---10(12)-10p8----10(12)----------------------------------------------
Gb----------------------------------------------------------------------
Db----------------------------------------------------------------------
Ab----------------------------------------------------------------------
Eb----------------------------------------------------------------------


                       G
eb----------------------------------------------------------------------
Bb---10(12)---10(12)---10(12)-(10)p8-10---------------------------------
Gb--------------------------------------9(11)~~~------------------------
Db----------------------------------------------------------------------
Ab----------------------------------------------------------------------
Eb----------------------------------------------------------------------


           Em7                                                   G
eb---7.-----------------------------------------------10----------------
Bb------8.-7---8(10)~-------------10(12)----------------(12)(10)-8~-----
Gb-----------9----------------------------------------------------------
Db----------------------------------------------------------------------
Ab----------------------------------------------------------------------
Eb----------------------------------------------------------------------


20190817

THE STEELMEN STILL TAB


The Steelmen - Still is a vintage guitar instrumental song from the '50s
The main guitar solo line is transcribed
Download the TAB under the video



THE STEELMEN STILL TAB


Part 1
          G                                         C
e-----------------------------------------------------------------------
B-----------------------------------------------------------------------
G-----------------------------------------------------------------------
D---------------------------5---5-3---3-2---2---------------------------
A---------2---2-5---5-2---2-------------------5---5-3-------------------
E---3---3---------------------------------------------------------------
    x   x x   x x   x x   x x   x x   x x   x x   x x


    C
e-----------------------------------------------------------------------
B-----------------------------------------------------------------------
G-----------------------------------------------------------------------
D----------2-----5---2.---------------5---2.----------------------------
A-----------------------------------------------------------------------
E-----------------------------------------------------------------------


                              G
e-----------------------------------------------------------------------
B-----------------------------------------------------------------------
G-----------5-----4-----------------------------------------------------
D---2-5.----------------5-----3-----------------------------------------
A-----------------------------------------------------------------------
E-----------------------------------------------------------------------