20190623

GAME OF THRONES THEME FINGERSTYLE TAB


The Game of Thrones theme acoustic fingerstyle guitar arragement by SASO
It's in standard tuning with Capo on the 3rd fret
Download the TAB under the video



GAME OF THRONES THEME FINGERSTYLE TAB

GP5 + GP6 + PDF >>

 - CAPO on the 3rd - 

e---0-----------0-----------0-----------0-------------------------------
B-----------1h3---------1h3---------1h3---------1h3---------------------
G-------2-----------2-----------2-----------2---------------------------
D-----------------------------------------------------------------------
A---0-------------------------------------------------------------------
E-----------------------------------------------------------------------


e---0-----------0-----------0-----------0-------------------------------
B-----------2h3---------2h3---------2h3---------2h3---------------------
G-------2-----------2-----------2-----------2---------------------------
D-----------------------------------------------------------------------
A---0-----------0-----------0-----------0-------------------------------
E-----------------------------------------------------------------------


e---0---------------------------0---------------------------------------
B-------1-------------------1h3-----------------1h3---------------------
G---------------2-----------------------2-------------------------------
D-----------2-----------2-----------2-------2---------------------------
A---0-----------0-----------0-----------0-------------------------------
E-----------------------------------------------------------------------


20190615

SECRET LOVE INSTRUMENTAL GUITAR TAB (MARK ALLEN)


Doris Day - Secret Love instrumental guitar cover by Mark Allen
Amazing electric guitar arrangement with backing track
Download the TAB under the video



MARK ALLEN SECRET LOVE TAB

GP5 + GP6 + PDF >>

Verse  (at ~ 0:48)

e-----------------------------------------------------------------------
B---9/11~--------8h9-8~-------------------------------------------------
G------------------------8---10---10/12---------------------------------
D-----------------------------------------8~~~--------------------------
A-----------------------------------------------------------------------
E-----------------------------------------------------------------------


e-----------------------------------------------------------------------
B-------------------------8~--9---11---11/13----------------------------
G--------7/8~--------8h10----------------------10~------\---------------
D---8-10----------------------------------------------------------------
A-----------------------------------------------------------------------
E-----------------------------------------------------------------------


e-----------------------------------------------------------------------
B------8-8h9-9~-----8h9p8-----------------------------------------------
G---10-------------------10~---7---7h8---8/10-----10/12\10--p8---8/10~--
D---------------------------------------------8-------------------------
A-----------------------------------------------------------------------
E-----------------------------------------------------------------------


20190606

ERIC CLAPTON TULSA TIME SOLO TAB (LIVE AT CROSSROADS)

Eric Clapton, Sheryl Crow, Vince Gill and Albert Lee perform Tulsa Time
Live version recorded at Crossroads Guitar Festival 2007
Vince Gill's solo starts around 3:35 in this video
Eric Clapton's solo starts at 4:40
Download the TAB below


ERIC CLAPTON TULSA TIME SOLO TAB

GP5 + GP6 + PDF >>

 ~ 4:40

e---------------------------13------------------------------------------
B----------15(17)--------------(17)(15)-13~~~---------------------------
G----------x------------------------------------------------------------
D-----------------------------------------------------------------------
A-----------------------------------------------------------------------
E-----------------------------------------------------------------------


e-----------------------------------------------------------------------
B-----15(17).-15.-13.---------------------------------------------------
G---------------------15(16)-12-----12~---\----/(19).-------------------
D---------------------x---------14.-------------------------------------
A-----------------------------------------------------------------------
E-----------------------------------------------------------------------


e--------3----------------------7-6-5-3---3-----------------------------
B------3---6-3h5p3------------------------------13.---------------------
G---3h4-----------5-3h4------/7-7-6-5-4---4-/14-------------------------
D-------------------3---5.----------------------------------------------
A-----------------------------------------------------------------------
E-----------------------------------------------------------------------


20190601

MARCO SISON ALWAYS TAB (ACOUSTIC COVER)


Marco Sison - Always acoustic cover by Piwee Polintan and Merlin Discipulo
It's a piano song arranged to acoustic guitar in half-step down tuning
Download the TAB under the video



MARCO SISON ALWAYS ACOUSTIC TAB

GP5 + GP6 + PDF >>

 - half-step down tuning -

Part 1

eb-----------------------------------0-----------------------3----------
Bb---------------3--3h5--3-------------------3-------1-------3----------
Gb-----------5---------------4---5.------0-------0-----------4----------
Db-------5---------------------------------------------------5----------
Ab---3-------------------------------------------------------5----------
Eb-----------------------------------1---------------1-------3----------


eb-------------------3--------------------------------------------------
Bb---------------3-------3-----------------------3----------------------
Gb-----------5---------------5---------------5-------5-----4-----5------
Db-------5-------------------------------5------------------------------
Ab---3-------------------------------3----------------------------------
Eb-------------------------------3--------------------------------------


eb---0-------0-----------------------0----------------------------------
Bb---------------1-----------0---1-----------3-------1-------3----------
Gb-------2---------------2---------------0-------0-------0-------0------
Db----------------------------------------------------------------------
Ab----------------------------------------------------------------------
Eb---1---------------1---------------1---------------1-------0----------


20190524

GUITAR BOOGIE BREAKDOWN TAB (DEDEPICK)


Guitar Boogie (breakdown) electric guitar cover played by 'dedepick'
Nice country blues guitar playing with an old Fender Telecaster
Download the TAB under the video



GUITAR BOOGIE BREAKDOWN TAB

GP5 + GP6 + PDF >>

Part 1

e---0---2-0-4-0-2-4-5-0-4-0-2-0---2-0---0-2-4-2-0-4-2-0-----------------
B-------------------------------4-----4-----------------4-2-0-0-2-4-----
G-----------------------------------------------------------------------
D-----------------------------------------------------------------------
A-----------------------------------------------------------------------
E-----------------------------------------------------------------------


e---0---2-0-4-0-2-4-5-0-4-0-2-0---2-0---0-2-4-2-0-4-2-0---2-0-0---------
B-------------------------------4-----4-----------------4-------2-4-----
G-----------------------------------------------------------------------
D-----------------------------------------------------------------------
A-----------------------------------------------------------------------
E-----------------------------------------------------------------------


e---0---4-0-7-0-4-7-0-7-4-0-7-0-4-7-------------------------------------
B-----------------------------------0---4-0-7-0-4-7-0-7-4-0-7-0-4-7-----
G-----------------------------------------------------------------------
D-----------------------------------------------------------------------
A-----------------------------------------------------------------------
E-----------------------------------------------------------------------