20200522

HAPPY BIRTHDAY FINGERSTYLE TAB (LIFA LATIFAH)


Happy Birthday Song intermediate fingerstyle guitar cover played by Lifa Latifah
It's arranged in Dropped D tuning and no Capo is needed
Download the TAB under the video



HAPPY BIRTHDAY FINGERSTYLE TAB

GUITAR PRO + PDF >>

e---------5-----------2-------------------------------------------------
B---------------------3----------------/3---3-2/3\2p0-------------------
G---2---2-------2-----2----------------/4---4-0-------------------------
D---------0-----------------------------------0-------------------------
A-----------------------------------------------------------------------
D---------------------------------------------5-------------------------


e-----------------------------------------------------------------------
B-----------------------------------------------------------------------
G---<7>-----<12>--------------------------------------------------------
D---<7>-----<12>--------------------------------------------------------
A-----------------------------------------------------------------------
D-----------------------------------------------------------------------


e-------------------------------------0h2-------------------------------
B----/8---8-7-\---3---------5/6\5-----3---------------------------------
G----/9---9-7-\---3---------6---------2---------------------------------
D-----------0-----3-------------------0---------------------------------
A-----------0---------------0-------------------------------------------
D-----------------------------------------------------------------------


20200515

BILLY STRINGS DON'T THINK TWICE TAB (BOB DYLAN COVER)


Bob Dylan - Don't Think Twice bluegrass guitar cover played by Billy Strings
It's in standard tuning with Capo on the 5th fret
Download the TAB under the video



BILLY STRINGS DON'T THINK TWICE TAB

GP5 + GP6 + PDF >>

- CAPO on the 5th -

Intro

e---------------0-----3---0---------0-----------------------------------
B-------------------------------3-------3-------------------------------
G---------------------------0-------------------------------------------
D-------------------2-------------2-------2-----------------------------
A-------0.--2.--3-------3-------2---------------------------------------
E---3.--------------------------------0---------------------------------


e-----------------------------------------------------------------------
B---1-------0-------------1---------------------------------------------
G-------2.------------2-------2-----------------------------------------
D---------------0-------3-------3p0-------------------------------------
A---0-------------------------------------------------------------------
E-----------3-------1-------1-------------------------------------------


e---------3---0-----0h1---0---------------------------------------------
B-----------------------------0-----1-------------1---------------1-----
G-----0---------0-----------------------------0---------------0---------
D-------2---------------0-------0-------2-------2-------2-------2-------
A---3-------------------------------3---------------3-------------------
E-------------------3-------3---------------3---------------3-----------


20200507

PRELUDIO AZUL CLASSICAL GUITAR TAB (ANGEL G. PINERO)


Angel G. Piñero - Preludio Azul classical guitar cover by Ramón Vergara
Amazing performance recorded by Cithara Vis
Download the TAB under the video



PRELUDIO AZUL GUITAR TAB

GP5 + GP6 + PDF >>

Part 1

e---0---------------0---------------7-----------------------------------
B-----0---0-----0-----0---0-----0-----0---0-----0-------0-------0-------
G-------0-----0---0-----0-----0---0-----0-----0---0---0---0---0---0-----
D-----------2---------------2-----------------------5-------------------
A-------------------------------------------7---------------7-----------
E---0---------------0---------------0-----------------------------------


e---6---------------6---------------5-----------------------------------
B-----5---5-----5-----5---5-----5-----4---4-----4-------4-------4-------
G-------6-----6---6-----6-----6---0-----2-----2---2---2---2---2---2-----
D-----------5---------------5---------------4---------------4-----------
A-----------------------------------2---------------2-------------------
E---0---------------0---------------------------------------------------


e---3---------------3---------------2-----------------------------------
B-----0---0-----0-----0---0-----0-----0---0-----0-------0-------0-------
G-------0-----0---0-----0-----0---0-----2-----2---2---2---2---2---2-----
D-----------2---------------2---------------1---------------1-----------
A-----------------------------------2---------------2-------------------
E---0---------------0---------------------------------------------------


20200502

O SOLE MIO (IT'S NOW OR NEVER) INSTRUMENTAL GUITAR TAB


O Sole Mio (It's Now or Never) instrumental guitar cover by Giorgio Zizzo
Easy guitar instrumental with backing track
Download the TAB under the video



O SOLE MIO (IT'S NOW OR NEVER) TAB

GP5 + GP6 + PDF >>

Part 1

e-----------------------------------------------------------------------
B-----------------------------------------------------------------------
G-------2-(1)-(2)---1------------------------1---1----------------------
D-----------------------2-------2~-------------------4---0--------------
A-----------------------------------------------------------------------
E-----------------------------------------------------------------------


e-----------------------------------------------------------------------
B-----------------------------------------------------------------------
G-------1---1-----------------------------------------------------------
D---------------4---0~-------0~-------------------0---2~----------------
A-----------------------------------------2-/-4-------------------------
E-----------------------------------------------------------------------


e-----------------------------------------------------------------------
B-----------------------------------------------------------------------
G--------------------------------------2~-------------------------------
D-----2h3-0-2-2h3---3~-------------0----------3---p2-----2~-------------
A-----------------------------------------------------------------------
E-----------------------------------------------------------------------


20200424

ACOUSTICIAN DON'T CRY SOLO TAB


Guns N Roses - Don't Cry acoustic guitar solo cover played by Acoustician
It's in standard tuning with a rhythm guitar backing track
Download the TAB under the video



DON'T CRY ACOUSTIC SOLO TAB

GP5 + GP6 + PDF >>


e-----------------------------------------------------------------------
B--------------------------------------------------7~-------------------
G--------6/8~---------6p4-6~-----------6/8\6-4-6/8----------------------
D-----------------------------------------------------------------------
A-----------------------------------------------------------------------
E-----------------------------------------------------------------------


e-----------------------------------------------------------------------
B-------------7~--------------------------------------------------------
G---8\6-4-6/8------8q6-4.-----------------------------------------------
D---------------------------6~---4.-------------------------------------
A-------------------------------------4(5)(4)-2.------------------------
E-----------------------------------------------------------------------


e-----------------------------------------------------------------------
B-------------------------------------/16---\12~------------------------
G---6/8-8/9-9/11----------------11h13--------------13~------------------
D--------------------9h11-11/13-----------------------------------------
A---4/6-6/7-7/9-9h11----------------------------------------------------
E-----------------------------------------------------------------------