20190714

KFIR OCHAION ZOMBIE TAB (INSTRUMENTAL ELECTRIC GUITAR TAB)


The Cranberries - Zombie electric guitar cover played by Kfir Ochaion
Advanced lead guitar playing with backing track
Download the TAB under the video



KFIR OCHAION ZOMBIE TAB

GP5 + GP6 + PDF >>

Intro

e-----------------------------------------------------------------------
B-----------------------------------------------------------------------
G-----------------------------------------------------------------------
D---2-2-2-2-2-2-2-2-5-5-5-5-5-5-5-5-5-5-5-5-5-5-5-5-0-0-0-0-0-0-0-0-----
A---2-2-2-2-2-2-2-2-3-3-3-3-3-3-3-3-5-5-5-5-5-5-5-5-x-x-x-x-x-x-x-x-----
E---0-0-0-0-0-0-0-0-----------------3-3-3-3-3-3-3-3-2-2-2-2-2-2-2-2-----


e-----------------------------------------------------------------------
B-----------------------------------------------------------------------
G-----------------------------------------------------------------------
D---2-2-2-2-2-2-2-2-1010101010101010-5-5-5-5-5-5-5-5-0-0-0-0-0-0-0-0----
A---2-2-2-2-2-2-2-2-1010101010101010-5-5-5-5-5-5-5-5-x-x-x-x-x-x-x-x----
E---0-0-0-0-0-0-0-0-8-8-8-8-8-8-8-8--3-3-3-3-3-3-3-3-2-2-2-2-2-2-2-2----


e-----------------------------------7-8~--5h7~--3h5~--2-3-2-------------
B-----------------------------------------------------------3~--3~------
G-----------------------------------------------------------------------
D---2-------------------------------------------------------------------
A---2-------------------------------------------------------------------
E---0-------------------------------------------------------------------


20190707

MANU CHAO EL CONTRAGOLPE TAB (LIVE ACOUSTIC)


Manu Chao - El Contragolpe live acoustic version played by Madjid and Manu
All the acoustic guitar solo parts are transcribed (Madjid's part)
Download the TAB under the video



EL CONTRAGOLPE ACOUSTIC SOLO TAB

GP5 + GP6 + PDF >>

Intro solo

e---5--------------7~--7~--7-8p7h8p7p5-7~~~-----------------------------
B---5----------5-6------------------------------------------------------
G---5-------------------------------------------------------------------
D---7-------------------------------------------------------------------
A-----------------------------------------------------------------------
E-----------------------------------------------------------------------


e--------5-7-8-8-8-8p7-7-7p5-5---5---5.--5-7p5-5-7-7---7-7\--5-5\--3-3-x
B---5-6-8--------------------------------------------------------------x
G----------------------------------------------------7-----5-----4-----x
D-----------------------------------------------------------------------
A-----------------------------------------------------------------------
E-----------------------------------------------------------------------


e----5-7-8-7---5--------------------------------------------------------
B---5------------8-6---5-------5-6p5-6p5---5~--5~-----------------------
G--5---------------------7-5\4-----------7------------------------------
D-----------------------------------------------------------------------
A-----------------------------------------------------------------------
E-----------------------------------------------------------------------


20190628

I WILL ALWAYS LOVE YOU TAB (FINGERSTYLE)


Dolly Parton - I Will Always Love You easy fingerstyle guitar cover by kchan9999
It's arranged in standard tuning with Capo on the 2nd fret
Download the TAB under the video



I WILL ALWAYS LOVE YOU FINGERSTYLE TAB

GP5 + GP6 + PDF >>


 - CAPO on the 2nd fret -
Part 1

e---------3-----------0-----------0-------------2-----------------------
B---------3-----------0-----------1-------------3----------1-/3---------
G------4-----------0-----0-----0-------------2--------------------------
D---5--------4--2-----------2--------2--2/4-----------------------------
A---------------------------3-------------------------------------------
E-----------------------------------------------------------------------


e-----------------------------------------------------------------------
B---0--------------------1--0-------------------------------------------
G---------0-----------2-----------0-----------2h4--2--------------------
D------0-----0-----0-----------0-----0-----0----------------------------
A-----------------------------------------------------------------------
E---3-----------2-----------3-----------2-------------------------------


e-----------------------------------------------------------------------
B------------0--0--------3/5-5-----5-----3-----1-/3---------------------
G---2-p0-----------0---------------5-----2------------------------------
D-------------------------------5-----5--0------------------------------
A---------2------------------3------------------------------------------
E---0-----------0-----0-------------------------------------------------


20190623

GAME OF THRONES THEME FINGERSTYLE TAB


The Game of Thrones theme acoustic fingerstyle guitar arragement by SASO
It's in standard tuning with Capo on the 3rd fret
Download the TAB under the video



GAME OF THRONES THEME FINGERSTYLE TAB

GP5 + GP6 + PDF >>

 - CAPO on the 3rd - 

e---0-----------0-----------0-----------0-------------------------------
B-----------1h3---------1h3---------1h3---------1h3---------------------
G-------2-----------2-----------2-----------2---------------------------
D-----------------------------------------------------------------------
A---0-------------------------------------------------------------------
E-----------------------------------------------------------------------


e---0-----------0-----------0-----------0-------------------------------
B-----------2h3---------2h3---------2h3---------2h3---------------------
G-------2-----------2-----------2-----------2---------------------------
D-----------------------------------------------------------------------
A---0-----------0-----------0-----------0-------------------------------
E-----------------------------------------------------------------------


e---0---------------------------0---------------------------------------
B-------1-------------------1h3-----------------1h3---------------------
G---------------2-----------------------2-------------------------------
D-----------2-----------2-----------2-------2---------------------------
A---0-----------0-----------0-----------0-------------------------------
E-----------------------------------------------------------------------


20190615

SECRET LOVE INSTRUMENTAL GUITAR TAB (MARK ALLEN)


Doris Day - Secret Love instrumental guitar cover by Mark Allen
Amazing electric guitar arrangement with backing track
Download the TAB under the video



MARK ALLEN SECRET LOVE TAB

GP5 + GP6 + PDF >>

Verse  (at ~ 0:48)

e-----------------------------------------------------------------------
B---9/11~--------8h9-8~-------------------------------------------------
G------------------------8---10---10/12---------------------------------
D-----------------------------------------8~~~--------------------------
A-----------------------------------------------------------------------
E-----------------------------------------------------------------------


e-----------------------------------------------------------------------
B-------------------------8~--9---11---11/13----------------------------
G--------7/8~--------8h10----------------------10~------\---------------
D---8-10----------------------------------------------------------------
A-----------------------------------------------------------------------
E-----------------------------------------------------------------------


e-----------------------------------------------------------------------
B------8-8h9-9~-----8h9p8-----------------------------------------------
G---10-------------------10~---7---7h8---8/10-----10/12\10--p8---8/10~--
D---------------------------------------------8-------------------------
A-----------------------------------------------------------------------
E-----------------------------------------------------------------------