20190524

GUITAR BOOGIE BREAKDOWN TAB (DEDEPICK)


Guitar Boogie (breakdown) electric guitar cover played by 'dedepick'
Nice country blues guitar playing with an old Fender Telecaster
Download the TAB under the video



GUITAR BOOGIE BREAKDOWN TAB

GP5 + GP6 + PDF >>

Part 1

e---0---2-0-4-0-2-4-5-0-4-0-2-0---2-0---0-2-4-2-0-4-2-0-----------------
B-------------------------------4-----4-----------------4-2-0-0-2-4-----
G-----------------------------------------------------------------------
D-----------------------------------------------------------------------
A-----------------------------------------------------------------------
E-----------------------------------------------------------------------


e---0---2-0-4-0-2-4-5-0-4-0-2-0---2-0---0-2-4-2-0-4-2-0---2-0-0---------
B-------------------------------4-----4-----------------4-------2-4-----
G-----------------------------------------------------------------------
D-----------------------------------------------------------------------
A-----------------------------------------------------------------------
E-----------------------------------------------------------------------


e---0---4-0-7-0-4-7-0-7-4-0-7-0-4-7-------------------------------------
B-----------------------------------0---4-0-7-0-4-7-0-7-4-0-7-0-4-7-----
G-----------------------------------------------------------------------
D-----------------------------------------------------------------------
A-----------------------------------------------------------------------
E-----------------------------------------------------------------------


20190518

UNBREAK MY HEART TAB (ACOUSTIC FINGERSTYLE)


Toni Braxton - Unbreak My Heart fingerstyle guitar cover by Alexander Chekmarev
It's arranged in standard tuning and no Capo is needed
Download the TAB under the video



UNBREAK MY HEART FINGERSTYLE TAB

GP5 + GP6 + PDF >>

Intro

e-----------------------------------------------------------------------
B---------------0-------2-------3---------------------------------------
G---3-------------------------------------------------------------------
D-----------4---------------4-------------------------------------------
A-------4-----------4---------------------------------------------------
E---2-------------------------------------------------------------------


e-----------------------0---2---3---------------------------------------
B-------------------3-------------------------------0--h2--h3---3-------
G---------------4-------------------------------0-----------------------
D-----------4-------------------------------2---------------------------
A---2-------------------------------------------------------------------
E-----------------------------------0-----------------------------------


e-----------------------------------------------------------------------
B---------------2-----------0-------------------0-------2-------2-------
G-----------2-----------------------3-----------------------------------
D-------2---------------2-------------------4---------------4-----------
A---0---------------0-------------------4-----------4-------------------
E-----------------------------------2-----------------------------------


20190512

BURNS ERNST WHEELS TAB


The String-A-Longs - Wheels guitar cover played by Burns Ernst
Vintage guitar instrumental with backing track
Download the TAB under the video



BURNS ERNST WHEELS TAB

GP5 + GP6 + PDF >>

Part 1

e-----------------------------------------------------------------------
B---------1---1---------1---1---------1---1-----------------------------
G--------2----2--------2----2--------2----2-------2---------------------
D-------3-------------3-------------3-----------------3-----------------
A------3-------------3-------------3----------------------3-------------
E---1-------------1-------------1-------------1-------------------------


e-----------------------------------------------------------------------
B-----------------------------------------------------------------------
G------------------------------------10----9-------7--------------------
D---7---------------10-----------7--------7------------10---7-----------
A---------------8------------------------8-----8----------------8-------
E-----------------------------------------------------------------------


e-----------------------------------------------------------------------
B-----------------------------------------------------------------------
G------------------------------------9----7-----------------------------
D---8---------------10-------------------8--------10---8--------8-------
A---------------7----------------7------7-----7-------------------------
E----------------------------------------------------------10-----------


20190504

KEITH RICHARDS ACOUSTIC BLUES TAB


Keith Richards plays a killer acoustic blues jam here with a single guitar
The first song starts at 0:05 and the second one around 0:51
Download the TAB under the video



KEITH RICHARDS ACOUSTIC BLUES TAB

GP5 + GP6 + PDF >>

Song 1 (32 20 Blues)

e---------9-----------------------8---8-------7---7---------------------
B--/8-----8-----------------------7---7-------6---6---------------------
G--/9-----9-----------------------8---8-------7---7---------------------
D-----------------------------------------------------------------------
A---------0-----0-----0-----0-----0-----0-----0-----0-------------------
E-----------------------------------------------------------------------


e---5.----5.----5.----5.----5.------------------------------------------
B---5.----8.----7.----6.----5.------------------------------------------
G-------------------------------------7-----7---------------------------
D-------------------------------------6-----6-----0---------------------
A---0-----0-----0-----0-----0-----7-----7-----7-------------------------
E-----------------------------------------------------------------------


e---------9~----------------------9.------------------------------------
B---------8~----------------------8.----7---8.----0---------------------
G---------9~----------------------9.----8---9.----0---------------------
D-----------------------------------------------------------------------
A---0-----0-----0-----0-----0-----0-----0-----0-------------------------
E-----------------------------------------------------------------------


20190428

JOHN MAYER WORKED UP THIS COMBO BASS LINE RHYTHM STAB IDEA TAB


John Mayer plays a "combo bass line / rhythm stab" thing in his room
Sounds good with the Guthrie Govan signature guitar
Download the TAB under the video



JOHN MAYER COMBO BASS LINE RHYTHM STAB IDEA TAB

GP5 + GP6 + PDF >>

Part 1

e-------5-x---x-5-x---x-5-x---x-5-------5-x---x-5-x---x-5-x---x---------
B-------5-x---x-5-x---x-5-x---x-5-------5-x---x-5-x---x-5-x---x---------
G-------5-x---x-5-x-x-x-5-x---x-5-------5-x---x-5-x-x-x-5-x-x-x---------
D-------7-x---x-7-x-x-x-7-x---x-7-------7-x---x-7-x-x-x-7-x-x-x---------
A-------------------x-------------------------------x-------x-----------
E---5-----------------------------3/5---------------------------3-/-----


e-------5-x---x-5-x---x-5-x---x-5-------5-x---x-5-x---x-5-x---x-5-x-----
B-------5-x---x-5-x---x-5-x---x-5-------5-x---x-5-x---x-5-x---x-5-x-----
G-------5-x-x-x-5-x-x-x-5-x-x-x-5-------5-x-x-x-5-x-x-x-5-x-x-x-5-x-----
D-------7-x-x-x-7-x-x-x-7-x-x-x-7-------7-x-x-x-7-x-x-x-7-x-x-x-7-x-----
A-----------x-------x-------x---------------x-------x-------x-----------
E---5-----------------------------3/5-----------------------------------


Part 2

e-------5-x---x-5-x-----5-x-----5-x-----5-x-----5-x-----5-x-----5-x-----
B-------5-x---x-5-x-----5-x-----5-x-----5-x-----5-x-----5-x-----5-x-----
G-------5-x-x-x-5-x-----5-x-----5-x-----5-x-----5-x-----5-x-----5-x-----
D-------7-x-x-x-7-x---x-x-x-x-x-7-x-----7-x-x-x-x-x-x-x-x-x---x-7-x-----
A-----------x-------x-x-x---7-x-------------5-x-8---7-x-x---x-x---------
E---5---------------5---8-----------5-------------------8---5-----------