20200703

A FELICIDADE TAB (ZÉ PAULO BECKER)


Tom Jobim/V. de Moraes - A Felicidade fingerstyle guitar cover by Zé Paulo Becker
It's arranged in standard tuning for solo guitar
Download the TAB under the video



ZÉ PAULO BECKER A FELICIDADE TAB

PDF + GUITAR PRO >>

Part 1

e--------0---5-------------------8.--7.---------------------------------
B------------5-------5-----5-----8.--5.--8\-----------------------------
G------------4---4---4-----4-------------7\-----------------------------
D--------------------------------7.--5.--7\-----------------------------
A--------------3---------------0----------------------------------------
E----------------------3------------------------------------------------


e-------------------------------0---------------------------------------
B---5-------------5-------5---------------------------------------------
G---4-------4-----4---4-------------------------------------------------
D-------5-------------5-----5-------------------------------------------
A---3-----------------3-------------------------------------------------
E-------------3---------------3-----------------------------------------


e---3-----------0---2---------------------------------------------------
B-------------------------------4.--------------------------------------
G-----------0-------2-------2-------------------------------------------
D---------4---------1---1---1-------------------------------------------
A-------2-------------2-------0-----------------------------------------
E-----0-------0---------------------------------------------------------


20200626

D'ANGELO UNTITLED TAB (GUITAR CHORDS)


D'Angelo - Untitled (How Does It Feel) guitar cover played by Jeremy Hairston
It's in standard tuning - great accompaniment to the original song
Download the TAB under the video



UNTITLED (HOW DOES IT FEEL) TAB

PDF + GUITAR PRO >>


e-----------------------------------------------------------------------
B-----5h7.----------------7~-----8.-----10.-----------------------------
G-----6-----------------------------------------------------------------
D-----7-----------------------------------------------------------------
A---5-------------------5-----------------------------------------------
E---------------------------------------------0-------------------------


e--------------------5.-------------------------------------------------
B---5----------------5.----5-----------3------------5/7---7\5---3.------
G---5----------------5.----5-----------4--------------------------------
D---5--------------------------5-------4--------------------------------
A-----------------------------------------------------------------------
E---5--------------5-------------5---0-3----------3---------------------


e-----------------------------------------------------------------------
B---3----------------5~----------------5h7.---------7~----8.----10.-----
G---3----------------------------------6--------------------------------
D---2----------------------------------7--------------------------------
A------------------------------------5------------5---------------------
E---3--------------3------------------------------------------------0---


20200621

GUITARRA SALVADOR IBANEZ DEMO TAB (OSCAR CASARES)


Guitarra Salvador Ibañez guitar demo played by Oscar Casares
It's played and arranged in standard tuning
Download the TAB under the video



OSCAR CASARES - GUITARRA SALVADOR IBANEZ DEMO TAB

PDF + GUITAR PRO >>

Intro

e---16---12\---7--------0-------------------0---------------------------
B------------------9\-----0-----------------0---------------------------
G---------------------------1---------------1---------------------------
D-----------------------------2-------------2---------------------------
A-------------------------------2-----------2---------------------------
E---------------------------------4-0-------0---------------------------


Part 1

e---------------------------0-------------------------------------------
B---3---------------3-----------------------0---3-----------------------
G-----------4---------------------------1-------------------------------
D-------4-------4-------4-------2--h3-----------------------------------
A---2-------------------------------------------------------------------
E---------------------------0-------------------------------------------


e-----------------------0-----------------------------------------------
B---2---------------2-------------------2-------------------------------
G---------------1---------------2---4-----4-2.--------------------------
D-----------2-----------------------------------------------------------
A-------0-------------------0-------------------------------------------
E-----------------------------------------------------------------------


20200612

ALL I ASK OF YOU CLASSICAL GUITAR TAB


Andrew Lloyd Webber - All I Ask Of You (Phantom of the Opera) classical guitar cover
Arranged in Dropped D tuning by Kimiyoshi Akiyama
Download the TAB under the video



ALL I ASK OF YOU TAB

PDF + GUITAR PRO >>

Part 1

e-----------------------------------------------------------------------
B-------------------3-------------------------------3-------------------
G-----------2---------------2---------------2---------------2-----------
D-------4-------4-------4-------4-------4-------4-------4-------4-------
A-----------------------------------------------------------------------
D---0-------------------------------0-----------------------------------


e---0---------------0-----------2---2-----------------------------------
B-----------3-----------------------------------------------------------
G---2-----------2---------------------------2---------------------------
D---4-------4-------------------------------4---------------4-----------
A-------0-------------------0-----------0---------------0---------------
D---0-------------------------------0-----------------------------------


e---0---------------0-----------2---5-----------------------7-----------
B-----------3-------------------2-------------------3-------7-----------
G---2-----------2---------------2---------------4-----------------------
D---4-------4-------------------------------4---------------------------
A-------0-------------------0-----------0-------------------------------
D---0-------------------------------0-----------------------------------


20200606

THE MUSTANGS PEARLFISHER TAB


The Mustangs - Pearlfisher play a cover of Georges Bizet´s composition
Vintage instrumental guitar song arrangemd by Matti Luhtala
Download  the TAB under the video



THE MUSTANGS PEARLFISHER TAB

PDF + GUITAR PRO >>

Part 1

e-----5-----------------------------------------------------------------
B---------5~---6-5-------3-3h5---3-3h5-3--------------------------------
G-------7----------7---3------------------------------------------------
D---7----------------5--------------------------------------------------
A-----------------------------------------------------------------------
E-----------------------------------------------------------------------


e-----------------------------------------------------------------------
B----------6~---5--------------5----------------------------------------
G------7----------7---6~---6-7-----6------------------------------------
D---/8---8--------------------------------------------------------------
A-----------------------------------------------------------------------
E-----------------------------------------------------------------------


e-----5-----------------------------------------------------------------
B---------5~---6-5-------3-3h5---3-3h5-3--------------------------------
G-------7----------7---3------------------------------------------------
D---7----------------5--------------------------------------------------
A-----------------------------------------------------------------------
E-----------------------------------------------------------------------