20180916

YOU'LL NEVER WALK ALONE INSTRUMENTAL GUITAR TAB (DAVE MONK)


You'll Never Walk Alone instrumental guitar cover played by Dave Monk
Easy guitar instrumental with backing track
Download the TAB under the video



YOU'LL NEVER WALK ALONE INSTRUMENTAL TAB

GP5 + GP6 + PDF >>


e-----------------------------------------------------------------------
B-----5-3---------------------5-3---------------------------------------
G---------5~----------------------5~------------------------------------
D-----------------------------------------------------------------------
A-----------------------------------------------------------------------
E-----------------------------------------------------------------------


e-----------------------------------------------------------------------
B---5/--6-/8~-----------------------------------------------------------
G------------------------------7---7~-----------------------------------
D-----------------------------------------------------------------------
A-----------------------------------------------------------------------
E-----------------------------------------------------------------------


e-----------------------------------------------------------------------
B---5h6-6~---------------------8-6-5~-----------------------------------
G-----------------------------------------------------------------------
D-----------------------------------------------------------------------
A-----------------------------------------------------------------------
E-----------------------------------------------------------------------


20180909

INFINITE DESTINY FINGERSTYLE TAB (GABRIELLA QUEVEDO)

Infinite - Destiny fingerstyle guitar cover played by Gabriella Quevedo
It's arranged in a special tuning: FAEGBE
Download the TAB under the video



INFINITE DESTINY FINGERSTYLE TAB

GP5 + GP6 + PDF >>

Part 1

e---0.--0.--0.--0.--0.--0.--0.--0.--0.--0.--0.--0.--0.--0.--0.--0.------
B---1.--1.--1.--1.--1.--1.--1.--1.--1.--1.--1.--1.--1.--1.--1.--1.------
G---2.--2.--2.--2.--2.--2.--2.--2.--2.--2.--2.--2.--2.--2.--2.--2.------
E-----------------------------------------------------------------------
A---0-------------------------------------------------------------------
F-------------------3---------------2---------------1-------------------


e---0.--0.--0.--0.--0.--0.--0.--0.--0.--0.--0.--0.--0.--0.--0.--0-------
B---3.--3.--3.--3.--1.--1.--1.--1.--1.--1.--1.--1.--1.--1.--1.--1-------
G---2.--2.--2.--2.--2.--2.--2.--2.--2.--2.--2.--2.--2.--2.--2.--2-------
E-----------------------------------------------------------------------
A-----------------------------------------------------------------------
F---0---------------1---------------2---------------3-------------------


e-----------------------------------------------0-----------------------
B-----------0-1-0-----------0-3-1-----------3-1-----3---1---3-----------
G-------2---------------2---------------2---2-------2---2-------2-------
E-----0---------------0---------------0---------------0-----------------
A---0-----0-------------------------------------------------------------
F-------------------3-----3---------2-----2-------1---------------------


20180903

KFIR OCHAION BEAUTIFUL TAB (INSTRUMENTAL ELECTRIC GUITAR TAB)


Christina Aguilera - Beautiful instrumental electric guitar cover by Kfir Ochaion
Awesome lead guitar playing with an old Fender Stratocaster
Download the TAB under the video



KFIR OCHAION BEAUTIFUL TAB

GP5 + GP6 + PDF >>

Intro

e-----------------------------------------------------------------------
B-------14(16)~----------(14)-14.-13.-13(14)-(13)p11h13p11-13(14)-------
G-----------------------------------------------------------------------
D-----------------------------------------------------------------------
A-----------------------------------------------------------------------
E-----------------------------------------------------------------------


e-----------------------------------------------------------------------
B---13(14)(13)(14)(13)-11\-8-11p8-11(13)~---------------(12)------------
G-----------------------------------------------------------------------
D-----------------------------------------------------------------------
A-----------------------------------------------------------------------
E-----------------------------------------------------------------------


Verse

e-----------------------------------------------------------------------
B--------------------------8(9)------(8)--------------------------------
G----8~----8~-------8--10.---------------8~-----------------------------
D-------8.--------------------------------------------------------------
A-----------------------------------------------------------------------
E-----------------------------------------------------------------------


20180827

COLTER WALL MOTORCYCLE TAB (ACOUSTIC FINGERPICKING GUITAR TABS)


Colter Wall plays Motorcycle unplugged with a single guitar
Fingerpicking acoustic guitar song in 1 step down tuning with Capo on the 2nd
Download the TAB under the video



COLTER WALL MOTORCYCLE TAB

GP5 + GP6 + PDF >>

Intro

e-----------------------------------------------------------------------
B---------------------------------0-------------------------------0-----
G-----------------0-------------------------------0-------0---2---------
D-------0-------0-------0-------0-------0-------0-------0-------0-------
A-----------------------------------------------------------------------
E---3-------3-------3-------3-------3-------3-------3-------3-----------


e---------3-------------------------------------------------------------
B-----------------------------0-----------------------0-------1---------
G-------------------------0-------0-------0-------0-------0-------------
D-------0-------0-------0-------0-------0-------0---------------2p0-----
A-------------------------------------------------------2---3-----------
E---3-------3-------3-------3-------2h3-----2h3-----3-------------------


e-----------------------------------------------------------------------
B-------------0-----------0---------------------------0-----------------
G---------0-------0--h2-------2---0-------0-------0-------0-------------
D-------0-------0-------0-------0-------0-------0-----------------------
A-------------------------------------------------------2---------------
E---2h3-----3-------2-------2-------2h3-----2h3-----3-------------------


20180820

JIMI HENDRIX LOVER MAN SOLO TAB (ELECTRIC GUITAR SOLO TABS)

Jimi Hendrix - Lover Man - the main solo part starts about 0:55 in this version
Great electric guitar solo in half-step down tuning
Download the TAB under the video



JIMI HENDRIX LOVER MAN SOLO TAB

GP5 + GP6 + PDF >>

 (0:55 - 1:45)

eb----------------------------------------------------------------------
Bb----------------------------------------------------------------------
Gb--9(11)---9-7-----------------------9(11)---9-7-----------------------
Db--------------9-7-9.-----9.-----9.--------------9-7-9.-----9.-----9.--
Ab------------------x------x------x-------------------x------x------x---
Eb------------------7.-----7.-----7.------------------7.-----7.-----7.--


eb----------------------------------------------------------------------
Bb----------------------------------------------------------------------
Gb--9(11)---9-7-----9(11)---9-7-----9(11)---9-7-----9(11)---9-7---------
Db--------------9-7-------------9-7-------------9-7-------------9-7-----
Ab----------------------------------------------------------------------
Eb----------------------------------------------------------------------


eb----------------------------------------------------------------------
Bb----------------------------------7-----------------------------------
Gb--9(11)---9-7-----9(11)---9-7-----9(11)---9-7-------------------------
Db--------------9-7-------------9-7-------------9-7---------------------
Ab----------------------------------------------------------------------
Eb----------------------------------------------------------------------