20190211

DON'T FORGET TO REMEMBER TAB (BURNS ERNST)


Bee Gees - Don't Forget To Remember instrumental guitar cover by Burns Ernst
Easy guitar instrumental with backing track
Download the TAB under the video



DON'T FORGET TO REMEMBER INSTRUMENTAL TAB

GP5 + GP6 + PDF >>

Part 1

e-----------------------------------------------------------------------
B-----------------------------------------------------------------------
G-----------------------------------------------------------------------
D-----------2~-------------2-3~---------3-2-----------------------------
A---3-/-5--------------5--------------------2-5-3~----------------------
E-----------------------------------------------------------------------


e-----------------------------------------------------------------------
B-----------------------------------------------------------------------
G-----------------------------------------------------------------------
D------------------------------7-10~---------9---7----------------------
A-----------7-7-8~---------8-----------------------7--10~---------------
E-----------------------------------------------------------------------


e-----------------------------------------------------------------------
B-----------------------------------------------------------------------
G-----------------------------------------------------------------------
D-----------7-/-9---10~---------9---10\-5--------------5-7~-------------
A-------------------------------------------7-8~------------------------
E-----------------------------------------------------------------------


20190131

ACOUSTICIAN COMFORTABLY NUMB SOLO TAB (JUHA JARVINEN)


Pink Floyd - Comfortably Numb guitar solo cover played by Acoustician
It's in standard tuning and the chords are included too
Download the TAB under the video



COMFORTABLY NUMB ACOUSTIC SOLO TAB

GP5 + GP6 + PDF >>

e-----------------------------------------------------------------------
B-----------------------------------------------------------------------
G-----7---9.-9/11~~~----------------------------------------------------
D-----x-----------------------------------------------------------------
A-----x-----------------------------------------------------------------
E-----------------------------------------------------------------------


e-----------------------------------------------------------------------
B-----------------------------------------------------------------------
G---9/11----\--9p7---7-9.-9~-----7---7.---------------------------------
D------------------9---------------9------------------------------------
A-----------------------------------------------------------------------
E-----------------------------------------------------------------------


e------------------------------------------------10.--------------------
B-------------10--10~----12.--15~-------12p10h12------------------------
G-------/11-----11------------------------------------------------------
D-----------------------------------------------------------------------
A-----------------------------------------------------------------------
E-----------------------------------------------------------------------


20190127

VERSACE ON THE FLOOR TAB (JOSEPH VINCENT)


Bruno Mars - Versace On The Floor acoustic guitar cover by Joseph Vincent
This transcription is in standard tuning though he uses half-step down tuning
Download the TAB under the video



VERSACE ON THE FLOOR ACOUSTIC TAB

GP5 + GP6 + PDF >>

Verse

e-----------------------------------------------------------------------
B-----------------------------------3-------3-------3-------3-----------
G---4-------4-------4-------4-------2-------2-------2-------2-----------
D---5-------5-------5-------5-----------4-------4-------4-------4.------
A-------5-------5-------5-------5.--2-----------------------------------
E---3-------------------------------------------------------------------


e-----------------------------------------------------------------------
B-----------------------------------5-------5-------4-------4-----------
G---0-------0-------0-------0-------5-------5-------3-------3-----------
D---2-------2-------2-------2-----------5---------------5-------5.------
A-------2-------2-------2-------2.--3-----------3---3-------------------
E---0-------------------------------------------------------------------


e-----------------------------------------------------------------------
B-----------------------------------3-------3-------3-------3-----------
G---4-------4-------4-------4-------2-------2-------2-------2-----------
D---5-------5-------5-------5-----------4-------4-------4-------4.------
A-------5-------5-------5-------5.--2-----------------------------------
E---3-------------------------------------------------------------------


20190120

STILL LOVING YOU TAB (OZIELZINHO)


Scorpions - Still Loving You electric guitar cover played by Ozielzinho
It's arranged in 1 step down tuning with backing track
Download the TAB under the video



STILL LOVING YOU ELECTRIC GUITAR TAB

GP5 + GP6 + PDF >>

- 1 step down tuning -

Intro

d-----------------------------------------------------------------------
A-----------------------------------------------------------------------
F-----\5p3-/7~-----5p3-3~~~---------------------------------------------
C-----------------------------------------------------------------------
G-----------------------------------------------------------------------
D-----------------------------------------------------------------------


d-----------------------------------------------------------------------
A------------------------------------7/8/10~~~--------------------------
F------3-5-3-5-5/7~~~---------------------------------------------------
C-----------------------------------------------------------------------
G-----------------------------------------------------------------------
D-----------------------------------------------------------------------


Verse

d-----------------------------------------------------------------------
A-----------------------------------------------------------------------
F----/7~------------\---------7\5p3-/7~---------------------------------
C-----------------------------------------------------------------------
G-----------------------------------------------------------------------
D-----------------------------------------------------------------------


20190112

THE ENTERTAINER TAB (RICHARD SMITH)


Scott Joplin - The Entertainer fingerstyle guitar cover played by Richard Smith
It's arranged in Dropped D tuning and it's bloody hard to play ...
Download the TAB under the video



THE ENTERTAINER FINGERSTYLE TAB

GP5 + GP6 + PDF >>

- Dropped D tuning -
Part 1

e----------------------------------------------------0--1---------------
B----------------3--------3-------3---------------3---------------------
G---------------------------------4-------4----------0--1---------------
D---2----3----4-----4--4-------4----------5-----------------------------
A---4---------------------0---------------------------------------------
D-------------0----------------------5---------4------------------------


e---2-----0--2----------------------------------------------------------
B------3-----------2--5----3--------------------------------------------
G---2-----0--2-------------2--------------------------------------------
D------4-----------2--5----4--------------2--3--------------------------
A---0-----------0---------------0----2----4-----------------------------
D--------------------------0--------------------------------------------


e-----------------------------------------------------------------------
B------3--------3-------3-----------------0-----------------------------
G-----------------------4-------4------------2--------------------------
D---4-----4--4-------4----------5---------------------------------------
A---------------0-------------------------------------------------------
D---0----------------------5---------4----3-----------------------------