20180617

TOMMY AND PHIL EMMANUEL IRISH AND SCOTTISH MEDLEY TAB


Tommy and Phil Emmanuel play an Irish - Scottish Medley in Holland - 2001
Phil's guitar playing is fully transcribed + Tommy's chords and harmonies
Download the TAB under the video



IRISH AND SCOTTISH MEDLEY TAB

GP5 + GP6 + PDF >>

#1

e---0-------0-----------0-0h2-0-----0-------------3---------------------
B-----3-0h2---2-0---0h2---------0h2---2-0---0---0---0-------------------
G-----------------2-----------------------2---2-------2-----------------
D-----------------------------------------------------------------------
A-----------------------------------------------------------------------
E-----------------------------------------------------------------------


e-------0-----------0-0h2-0-----0---------------0-----------------------
B---0h2---2-0---0h2---------0h2---0---0-----------3---------------------
G-------------2---------------------1---2~------------------------------
D-----------------------------------------------------------------------
A-----------------------------------------------------------------------
E-----------------------------------------------------------------------


e-------0-----------0-0h2-0-----0-------------3-------------------------
B---0h2---2-0---0h2---------0h2---2-0---0---0---0-----------------------
G-------------2-----------------------2---2-------2---------------------
D-----------------------------------------------------------------------
A-----------------------------------------------------------------------
E-----------------------------------------------------------------------


20180611

CAN'T TAKE MY EYES OFF YOU TAB (INSTRUMENTAL ELECTRIC GUITAR TAB)

Can't Take My Eyes Off You instrumental electric guitar cover by Take Guitar Channel
Awesome electric guitar solo played in standard tuning
Download the TAB under the video



CAN'T TAKE MY EYES OFF YOU ELECTRIC GUITAR TAB

GP5 + GP6 + PDF >>

Intro

e-----------------------------------------------------------------------
B-----------------------------------------------------------------------
G---4-4.----4-4.----4-4.----4-4.----2-2.----2-2.----2-2.----2-2.--------
D---------4-------4-------4-------4-------2-------2-------2-------------
A-----------------------------------------------------------------------
E-----------------------------------------------------------------------
    x x   x x x   x x x   x x x   x x x   x x x   x x x   x x x


e-----------------------------------------------------------------------
B-----------------------------------------------------------------------
G-----4-4.----4-4.----4-4.----4-4.----2-2.----2-2.----2-2.----2-2.------
D---2-------4-------4-------4-------4-------2-------2-------2----------
A-----------------------------------------------------------------------
E-----------------------------------------------------------------------
    x x x   x x x   x x x   x x x   x x x   x x x   x x x   x x x


e-----------------------------------------------------------------------
B-----------------------------------------------------------------------
G-----4-4.----4-4.----4-4.----4-4.----2-2.----2-2.----2-2.--------------
D---2-------4-------4-------4-------4-------2-------2-------------------
A-----------------------------------------------------------------------
E-----------------------------------------------------------------------
    x x x   x x x   x x x   x x x   x x x   x x x   x x x



20180603

NANCI GRIFFITH BOOTS OF SPANISH LEATHER TAB (FINGERPICKING ACOUSTIC GUITAR TAB)


Nanci Griffith sings Boots of Spanish Leather by Bob Dylan
Her guitar is in standard tuning with Capo on the 2nd fret
Download the TAB under the video



NANCI GRIFFITH BOOTS OF SPANISH LEATHER ACOUSTIC TAB

GP5 + GP6 + PDF >>

 - CAPO on the 2nd -
Intro

e-----------------5-------5-------5-------5-------5-------5-------------
B-------------3-------3-------3-------3-------3-------3-------3---------
G-------0-------0-------0-------0-------0-------0-------0-------0-------
D---0-------4-------0-------0-------0-------0-------0-------0-----------
A-----------------------------------------------------------------------
E-----------------------------------------------------------------------


e---------3-------3-------3---------------2---------------3-------3-----
B-----0-------0-------1-------1-------3-------3-------0-------1---------
G-------0-------0-------0-------0-------2-------0-------0-------0-------
D-----------0-------0h2-----2-------0-------0---------------0h2---------
A-----------------------------------------------------------------------
E---3-----------------------------------------------3-------------------


e-----------------0-----------------------------------------------------
B-----0-------0---------------------------------------------------------
G-------0-------0-------------------------------------------------------
D---0-------------------------------------------------------------------
A-----------------------------------------------------------------------
E-----------2-----------------------------------------------------------


20180527

THE ELECTROMANIACS ROOT OF LOVE TAB (GUITAR INSTRUMENTAL)


The Electromaniacs - Root Of Love - vintage instrumental guitar song from the 60's
This song is from the album called "Lover's Guitar"
Download the TAB under the video



THE ELECTROMANIACS ROOT OF LOVE TAB

GP5 + GP6 + PDF >>

Part 1

e---3h5p3------------3~-----------7h9p7------------7~-------------------
B--------5---------5-5~----------------9---------9-9~-------------------
G---------5~----------------------------9~------------------------------
D-----------------------------------------------------------------------
A-----------------------------------------------------------------------
E-----------------------------------------------------------------------


e---8h10p8------------10h12p10--------------15h17p15--------------------
B---------10------------------12--------------------17------------------
G-----------10~-----------------12~-------------------17~---------------
D-----------------------------------------------------------------------
A-----------------------------------------------------------------------
E-----------------------------------------------------------------------


e---17h19p17------------------------------------------------------------
B-----------19----------------------------------------------------------
G-------------19~-------------------------------------------------------
D-----------------------------------------------------------------------
A-----------------------------------------------------------------------
E-----------------------------------------------------------------------



20180519

JIMMIE VAUGHAN THE PLEASURE'S ALL MINE SOLO TAB


Jimmie Vaughan and Bonnie Raitt play The Pleasure's All Mine live in Austin
Jimmie's solo starts about 1:40 and he has a Capo on the 1st fret
Download the TAB under the video



THE PLEASURE'S ALL MINE SOLO TAB

GP5 + GP6 + PDF >>

 - CAPO on the 1st -

e---/10-10-10-10--/10-10-10--10-10-10--10-10-10--10-10-10---------------
B---/12-12-12-12--/12-12-12--12-12-12--12-12-12--12-12-12---------------
G-----------------------------------------------------------------------
D-----------------------------------------------------------------------
A-----------------------------------------------------------------------
E-----------------------------------------------------------------------


e---/10-10-10---9--9--9--7-7-7--7-7-7--/10-10-10--10-10-10--10----------
B---/12-12-12--10-10-10--8-8-8--8-8-8--/12-12-12--12-12-12--12----------
G-----------------------------------------------------------------------
D-----------------------------------------------------------------------
A-----------------------------------------------------------------------
E-----------------------------------------------------------------------


e-------10-12-10--------------------------------------------------------
B---/12----------12-10-8~--8-10.----8--8\-------------------------------
G--------------------------x------9----9\-------------------------------
D-----------------------------------------------------------------------
A-----------------------------------------------------------------------
E-----------------------------------------------------------------------