20190817

THE STEELMEN STILL TAB


The Steelmen - Still is a vintage guitar instrumental song from the '50s
The main guitar solo line is transcribed
Download the TAB under the video



THE STEELMEN STILL TAB


Part 1
          G                                         C
e-----------------------------------------------------------------------
B-----------------------------------------------------------------------
G-----------------------------------------------------------------------
D---------------------------5---5-3---3-2---2---------------------------
A---------2---2-5---5-2---2-------------------5---5-3-------------------
E---3---3---------------------------------------------------------------
    x   x x   x x   x x   x x   x x   x x   x x   x x


    C
e-----------------------------------------------------------------------
B-----------------------------------------------------------------------
G-----------------------------------------------------------------------
D----------2-----5---2.---------------5---2.----------------------------
A-----------------------------------------------------------------------
E-----------------------------------------------------------------------


                              G
e-----------------------------------------------------------------------
B-----------------------------------------------------------------------
G-----------5-----4-----------------------------------------------------
D---2-5.----------------5-----3-----------------------------------------
A-----------------------------------------------------------------------
E-----------------------------------------------------------------------


20190810

BOYCE AVENUE THE CLIMB TAB (MILEY CYRUS ACOUSTIC COVER)


Miley Cyrus - The Climb acoustic cover played and arranged by Boyce Avenue
Alejandro uses a 12 string guitar in a special tuning (DbAbDbAbDbDb)
Download the TAB under the video



BOYCE AVENUE THE CLIMB ACOUSTIC TAB

GP5 + GP6 + PDF >>

Intro

Db---------------7-----------------------7------------------------------
Db---------0--------0-----0--------0--------0-----0---------------------
Ab------0-----0--------0--------0-----0--------0------------------------
Db----------------------------------------------------------------------
Ab----------------------------------------------------------------------
Db---0-----------------------0------------------------------------------


Verse

Db---------------7-----------------------7------------------------------
Db---------0--------0-----0--------0--------0-----0---------------------
Ab------0-----0--------0--------0-----0--------0------------------------
Db----------------------------------------------------------------------
Ab----------------------------------------------------------------------
Db---0-----------------------0------------------------------------------


Db---------------4-----------------------2------------------------------
Db---------0--------0-----0--------0--------0-----0---------------------
Ab------0-----0--------0--------0-----0--------0------------------------
Db---5-----------------------2------------------------------------------
Ab----------------------------------------------------------------------
Db----------------------------------------------------------------------


20190803

YESTERDAY ACOUSTIC FINGERSTYLE TAB (ADAM RAFFERTY)


The Beatles - Yesterday acoustic fingerstyle guitar cover by Adam Rafferty
It's arranged in standard tuning and no Capo is used
Download the TAB under the video



ADAM RAFFERTY YESTERDAY TAB

GP5 + GP6 + PDF >>

Part 1

e-----------------------------------------------------------------------
B-----------------------------------------------------------------------
G-------0---0---0-------0---0---0-------0---0---0-------0---0---0-------
D-------0---0---0-------0---0---0-------0---0---0-------0---0---0-------
A-----------------------------------------------------------------------
E---3---------------3---------------3---------------3-------------------


e--------------------------------------------------------0---2---3------
B--------------------------------------------0---2-/-4-----------0------
G---0h2-p0-0---------------------------------2-----------0---2----------
D------------0---0-------0---0---0-------2------------------------------
A----------------------------------------------------2------------------
E-----3--------------3---------------2----------------------------------


e---2h3p2-----0---0---------------------------0---0---------------------
B-----------------------------------------------------3--p1---0---------
G---2---------0---0-------0-------0-----------0-------------------2-----
D---------2-----------2-------0-----------2-----------0-----------------
A-------------------------------------3---------------------------------
E---0---------------------------------------------------------2---------


20190728

LAURA COX COUNTRY SOLO TAB (BIAS FX STANDALONE)


Laura Cox shows us her country, blues and rock presets on Bias FX Standalone
She plays a killer country solo at 1:58 with a strange Telecaster
Download the TAB under the video



LAURA COX BIAS FX COUNTRY SOLO TAB

GP5 + GP6 + PDF >>

 (1:58 - 2:28)

e-----------------------------------------------------------------------
B-----------------------------------------------------------------------
G-----------------------------------------------------------------------
D-----------------------------------------------------------------------
A-----------------------------------------------------------------------
E---2(3)---(3)(3)(3)(3)(3)(3)(3)(3)(3)(3)-2(3)(2)~---0------------------
            x  x  x  x  x  x  x  x  x  x


e-----------------------------------------------<12>--------------------
B-----------------------------------------------<12>--------------------
G-----------------------------------------------------------------------
D-----------------------------------------------------------------------
A-----------------------------------------------------------------------
E---0-0-/12---0-0-/12---0-0-/12---0---/12---0---------------------------

   
e-----------------------------------------------------------------------
B--------------------------------------------------------5.--5~------\--
G--------------------------------------------------4-5-6----------------
D--------------------------------2.--2~------4-5-6----------------------
A--------------------------2-3-4----------------------------------------
E---12-\-----0---0-0-2-3-4----------------------------------------------
                 x x x x x x x x x           x x x x x x x


20190719

HANK THE KNIFE DIAMONDS TAB


Hank The Knife - Diamonds is a vintage western instrumental guitar song
It's in 1 step down tuning (so tune down each string with 2 frets)
This record is on the album "Crazy Guitar" from 1980
Download the TAB under the video



HANK THE KNIFE DIAMONDS TAB

GP5 + GP6 + PDF >>

- 1 step down tuning -
Part 1

D-----------------------------------------------------------------------
A-----------------------------------------------------------------------
F-----------------------------------------------------------------------
C-------------------2-----0---------------------------------------------
G-----------2---------------2-------0-----------------------------------
D---0---3-------------------------------3-------------------------------


D-----------------------------------------------------------------------
A-----------------------------------------------------------------------
F-----------------------------------------------------------------------
C-----------------------------------------------------------------------
G---0-------0-------0---2---0-------------------------------------------
D-----------------3-------------3---------------------------------------


D-----------------------------------------------------------------------
A-----------------------------------------------------------------------
F-----------------------------------------------------------------------
C-----------------------------------------------------------2-----------
G---0-------0-------0---2---0-----------------------2-------------------
D-----------------3-------------3---0-------3---------------------------