20200118

I NEED TO BE IN LOVE FINGERSTYLE TAB


The Carpenters - I Need To Be In Love fingerstyle guitar cover by kunikiya55
It's arranged in Dropped D tuning with Capo on the 2nd fret
Download the TAB under the video



I NEED TO BE IN LOVE FINGERSTYLE TAB

GP5 + GP6 + PDF >>

- Capo on the 2nd fret -

Intro

e-------------------0---------------------------------------------------
B--0--1--3.-------------1----------------------------0------------------
G-----------0--------------------------0--2.-------------0--------------
D---------------2-------------------4--------0-------------------0------
A-----------3-------------------0---------------------------------------
D---------------------------0----------------5---------------3----------


e-------------------0---------------------------------------------------
B--0--1--3.-----------------------------------------0-------------------
G-----------0--------------------------0--2.-0----------0----------0----
D---------------2-------2---1-------4------------0-------------0------0-
A-----------3-------------------3---------------------------------------
D--------------------------------------------5--------------5-----------


Verse

e---0-------------------------------------------------------------------
B-------3---3---------------------------------------0-------------------
G-------------5-5.--4-----------2.--2-----------0h2---------2-----------
D-----------0---------------0---------------1-----------1-------0-------
A-----------------------------------3---------------3-------------------
D---5---------------5---------------------------------------------------


20200112

THE POWER OF LOVE INSTRUMENTAL GUITAR TAB


Jennifer Rush - The Power Of Love guitar cover by Cicci Guitar Condor
Easy instrumental guitar solo played live on stage
Download the TAB under the video



THE POWER OF LOVE TAB

GP5 + GP6 + PDF >>

Verse

e-----------------------------------------------------------------------
B---------4---4-----------4---4~----------------------------------------
G---3/5---------------6-5-----------------------------------------------
D-----------------------------------------------------------------------
A-----------------------------------------------------------------------
E-----------------------------------------------------------------------


e-----------------------------------------------------------------------
B-----------4---4-------9-8---------------------------------------------
G-------5-------------------10~-----------------------------------------
D-----------------------------------------------------------------------
A-----------------------------------------------------------------------
E-----------------------------------------------------------------------


e-----------------------------------------------------------------------
B---------------------8-9-----------------------------------------------
G-------10---10~----------8---------------------------------------------
D-----------------------------10~---------------------------------------
A-----------------------------------------------------------------------
E-----------------------------------------------------------------------


20200107

LET HER GO ACOUSTIC GUITAR TAB (LIVE)


Passenger - Let Her Go live acoustic performance at Pinkpop Festival 2013
Mike Rosenberg himself in front of thousands of people !!!
Capo on the 7th fret - download the TAB below



PASSENGER LET HER GO TAB

GP5 + GP6 + PDF >>

- Capo on the 7th fret -

Intro

e-----0-------------------0-----------0-----------------0.--------------
B---3---3-1-----1-----------------1-3---3-1-----1-----------3-----------
G-----------0h2-------2-------2-------------0h2-------2-----------0-----
D---------------3-------3-------3---------------2-------2.------0-------
A-------------------------------------------0-------0-------------------
E-----------1-------1-------1-------3-----------------------3-----------


e-----0---------------------3p0-----------0-----------------------------
B---3---3-1-----1---------1---------1h3---------1---------1-------------
G-----------0h2-------2-----------0-------------------2-----------------
D---------------3-------3-------3-------0-------2-------2---------------
A-------------------------------------------0-------0-------------------
E---3-------1-------1-------1-------3-----------------------------------


e-----------------------------------------------------------------------
B---------1-------1-----1---------0-------------------------------------
G-----2-------2---------------0-----------------------------------------
D-------2-------2-------2-------0---------------------------------------
A---0-------0-------0---------------------------------------------------
E---------------------------3-------------------------------------------


20200103

TRISTE FINGERSTYLE TAB


Antonio Carlos Jobim - Triste fingerstyle guitar cover played by Chiba Kosei
It's arranged in standard tuning and no Capo is used
Download the TAB under the video



TRISTE SOLO GUITAR TAB

GP5 + GP6 + PDF >>

Part 1

e-------0---------0-------0-------------0---------0-------0-------------
B---0---0-----0---0---0---0-----0.--0---0-----0---0---0---0-----0.------
G---6---6-----6---6---6---6-----6.--5---5-----5---5---5---5-----5.------
D---6---------6-------6---------6.--5---------5-------5---------5.------
A---0-------0-------0-------0-------0-------0-------0-------0-----------
E-----------------------------------------------------------------------


e-------0---------0-------0-------------0---------0-------0-------------
B---0---0-----0---0---0---0-----0.--0---0-----0---0---0---0-------------
G---6---6-----6---6---6---6-----6.--5---5-----5---5---5---5-------------
D---6---------6-------6---------6.--5---------5-------5-----------------
A---0-------0-------0-------0-------0-------0-------0-------0-----------
E---------------------------------------------------------------0-------


e---0-----5-4-5.--4---2-----------0-------------------------------------
B---0-------------2-------2---3---------0-----0---0---0---0-----0.------
G---6-------------4---------------------5-----5---5---5---5-----5.------
D---6-----------------------------------5-----5---5---4---4-----4.------
A---0-------------0---------0-------0---------0-------0-------0---------
E-----------------------------------------------------------------------


20191228

REBEL SON JOHNNY TAB (ACOUSTIC GUITAR SOLO)


Rebel Son play an instrumental version of Johnny on acoustic guitar
It's in standard tuning and the chords are included too
Download the TAB under the video



REBEL SON JOHNNY ACOUSTIC TAB

GP5 + GP6 + PDF >>

Part 1

e-----------------------------------------------------------------------
B-----------------------------------------------------------------------
G-----------------------------------------------------------------------
D-----------------------------------------------------------------------
A---5/7-----------------------------------------------------------------
E-------0---------------------------------------------------------------


e-----------------------------------------------------------------------
B-----------------------------------------------------------------------
G-----------------------------------------------------------------------
D---------------------4-4h5-----5-5---5p4-------------------------------
A---5/7-7---7-7-7---7---------------------------------------------------
E-----------------------------------------------------------------------
        x


e-----------------------------------------------------------------------
B-----------------------------------------------------------------------
G-----------------------------------------------------------------------
D-----------------------------5-5p4-------------------------------------
A---5---5-5-5---5---5-----5-5-------------------------------------------
E-----------------7-----------------------------------------------------
        x