20200802

JUSTIN JOHNSON WHILE MY GUITAR GENTLY WEEPS TAB


George Harrison - While My Guitar Gently Weeps fingerstyle guitar cover
Played by Justin Johnson with a Vintage Oil Can Guitar in standard tuning
Download the TAB under the video



WHILE MY GUITAR GENTLY WEEPS FINGERSTYLE TAB

PDF + GUITAR PRO >>

Part 1

e-----------------------------------------------------------------------
B-------------1.-----------------1.-------------------------------------
G-------------2.-----2-----------2.-----2-------------------------------
D-------------2.-----2-----------2.-----2-------------------------------
A---0.---0.--------0----------------------------------------------------
E----------------------3.---3.--------3---------------------------------


e-----------------------------------------------------------------------
B-------------1.------------3(5)---3(5)-(3)p1---------------------------
G-------------2.-----2------------------------2-------------------------
D-------------2.-----2--------------------------------------------------
A-----------------------------------------------------------------------
E---2.---2.--------2---1.-----------------------------------------------


e-----------------------------------------------------------------------
B-------------1.-----------------1.-------------------------------------
G-------------2.-----2-----------2.-----2-------------------------------
D-------------2.-----2-----------2.-----2-------------------------------
A---0.---0.--------0----------------------------------------------------
E----------------------3.---3.--------3---------------------------------


20200726

DUKE ROBILLARD SHE'S SWEET TAB (SOLO)


Duke Robillard - She's Sweet from the album called Rockin' Blues (1988)
There is a "one mile long" blues guitar solo at 1:27
Download the TAB under the video



DUKE ROBILLARD SHE'S SWEET SOLO TAB

PDF + GUITAR PRO >>


Solo

e---------0-------0-------0-------0-------0-------0-------0-------------
B-------3-------3-------3-------3-------3-------3-------3---------------
G---2/4-----3/4-----3/4-----3/4-----3/4-----3/4-----3/4-----4\2-0h1-----
D-------------------------------------------------------------------2---
A-----------------------------------------------------------------------
E-----------------------------------------------------------------------


e---------0-------0-------0-------0-------2-0-2-0-2-0-2-0-2-------------
B-------3-------3-------3-------3---------3-3-3-3-3-3-3-3-3-------------
G---2/4-----3/4-----3/4-----3/4-----------4-4-4-4-4-4-4-4-4-------------
D---------------------------------------2-------------------------------
A---------------------------------------2-------------------------------
E-----------------------------------0-----------------------------------


e---------3'---3'---0----------------------0----------------------------
B---------------------0---------------3'-----3--------------------------
G-----------------------3\2-0-----------------2h3-2-0h2---2-0h1p0-------
D-----------------------------2----------------------------------2.-----
A---0---0-----------------------0---0-----------------------------------
E-----------------------------------------------------------------------


20200718

ACOUSTICIAN TIME SOLO TAB


Pink Floyd - Time acoustic guitar solo cover played by Acoustician
It's in standard tuning with a rhythm guitar backing track
Download the TAB under the video



PINK FLOYD TIME ACOUSTIC SOLO TAB

PDF + GUITAR PRO >>

Part 1

e-----------------------------------------------------------------------
B-----------------------------------------------------------------------
G----------------------4/6~-----------4p2-4/6~--------------------------
D-----4~----------------------------------------------------------------
A----x------------------------------------------------------------------
E---x-------------------------------------------------------------------


e-----------------------------------------------------------------------
B-----------------------------------------------------------------------
G---6~----4p2-/6.-4~----------------------------------------------------
D------------------------------------6-----(7)(6)---4-------------------
A-----------------------------------------------------------------------
E-----------------------------------------------------------------------


e-----------------------------------------------------------------------
B------------------------10---------------------------------------------
G---------9.-9---11p9---------9h11~----------------4/6~-----------------
D---/11--------------11p9-----------------------------------------------
A-----------------------------------------------------------------------
E-----------------------------------------------------------------------


20200713

RUSSIAN DREAMS TAB (SANDOR HAJOSI)


Sandor Hajosi - Russian Dreams guitar cover played by Henry8860
Vintage instrumental guitar song in standard tuning
Download the TAB under the video



RUSSIAN DREAMS TAB

PDF + GUITAR PRO >>

Part 1

e-------------5---------------------5---------------------5-------------
B---------5---------5-------------6-------6-------------4-------4-------
G-------5-------------5---------7-----------7---------5-----------5-----
D---7-----------------------0---------------------4---------------------
A-----------------------------------------------------------------------
E-----------------------------------------------------------------------


e--------------------------------------5---7-8---7-5---7h8-7------------
B---5----------------------------4---5-------------------------6.-------
G---7--------------------4-5---7----------------------------------------
D---6----------------7--------------------------------------------------
A---7--------------7----------------------------------------------------
E-----------------------------------------------------------------------


e-----7------8-----7-----5-----3~------------4~-------------------------
B---8-----10-----8-----6-----5---------------3~-------------------------
G--------------------------------------------4~-------------------------
D-----------------------------------------------------------------------
A-----------------------------------------------------------------------
E-----------------------------------------------------------------------


20200703

A FELICIDADE TAB (ZÉ PAULO BECKER)


Tom Jobim/V. de Moraes - A Felicidade fingerstyle guitar cover by Zé Paulo Becker
It's arranged in standard tuning for solo guitar
Download the TAB under the video



ZÉ PAULO BECKER A FELICIDADE TAB

PDF + GUITAR PRO >>

Part 1

e--------0---5-------------------8.--7.---------------------------------
B------------5-------5-----5-----8.--5.--8\-----------------------------
G------------4---4---4-----4-------------7\-----------------------------
D--------------------------------7.--5.--7\-----------------------------
A--------------3---------------0----------------------------------------
E----------------------3------------------------------------------------


e-------------------------------0---------------------------------------
B---5-------------5-------5---------------------------------------------
G---4-------4-----4---4-------------------------------------------------
D-------5-------------5-----5-------------------------------------------
A---3-----------------3-------------------------------------------------
E-------------3---------------3-----------------------------------------


e---3-----------0---2---------------------------------------------------
B-------------------------------4.--------------------------------------
G-----------0-------2-------2-------------------------------------------
D---------4---------1---1---1-------------------------------------------
A-------2-------------2-------0-----------------------------------------
E-----0-------0---------------------------------------------------------