20180421

PLAYING FOR CHANGE COTTON FIELDS ACOUSTIC GUITAR SOLO TAB

Amazing musicians from all over the world play Cotton Fields by CCR
There is a nice acoustic solo played by Vinnie Caggiano around 1:38
Download this solo tab under the video



COTTON FIELDS ACOUSTIC SOLO TAB

GP5 + GP6 + PDF >>

(~ 1:40)

e-----------8p7p5-7--5--------------------------------------------------
B----------------------7--5---------------------------------------------
G--------------------------6p5-\4---------------------------------------
D---------------------------------7--4-7--4-----------------------------
A-----------------------------------------------------------------------
E-----------------------------------------------------------------------


e--------------------------------5-8p7p5----5---------------------------
B---------------------------5-7----------7------------------------------
G-----------4-4h5p4-4--5/6----------------------------------------------
D------4-7---------7----------------------------------------------------
A---5-------------------------------------------------------------------
E-----------------------------------------------------------------------


e---7--x--8--x--9--x--10-10/12-------11--x--8/9-------------------------
B-----------------------------------------------10-10~------------------
G-----------------------------------------------------------------------
D-----------------------------------------------------------------------
A-----------------------------------------------------------------------
E-----------------------------------------------------------------------


20180415

ADELE MILLION YEARS AGO INSTRUMENTAL GUITAR TAB


Adele - Million Years Ago instrumental guitar cover played by Burns Ernst
Easy guitar instrumental with backing track
Download the TAB under the video



BURNS ERNST MILLION YEARS AGO TAB


Part 1

e-----------------------------------------------------------------------
B-----------------------------------------------------------------------
G-------6~--------------------------------------------------------------
D---6---------6-7~----6---6---7~----------------------------------------
A-----------------------9-----------------------------------------------
E-----------------------------------------------------------------------


e-----------------------------------------------------------------------
B-----------------------------------------------------------------------
G-----------------------------------------------------------------------
D---7---7--/9-6~------------6~------------------------------------------
A-------------------9-7-9-----------------------------------------------
E-----------------------------------------------------------------------


e-----------------------------------------------------------------------
B-----------------------------------------------------------------------
G-----------------------------------------------------------------------
D---6-6-6h7-------------------------------------------------------------
A-----------9~----7-6-7---9~----6h7-6-----------------------------------
E---------------------------------------9~------------------------------


20180409

INFINITE BACK FINGERSTYLE GUITAR TAB


Infinite - Back fingerstyle guitar cover played by Gabriella Quevedo
It's arranged in 1 step down tuning and no Capo is used
Download the TAB under the video



INFINITE BACK FINGERSTYLE TAB

GP5 + GP6 + PDF >>

 - 1 step down tuning -
Part 1

d------3-p2-----3-p2-----3-----3-p2-----3-p2-----3----------------------
A---0--------0--------0-----1--------1--------1-------------------------
F-----------------------------------------------------------------------
C-----------------------------------------------------------------------
G---------------------------0-----------------0-------------------------
D---0-----------------0-------------------------------------------------


d------3-p2-----3-p2-----3-----2-p0-----2-p0-----2----------------------
A---1--------1--------1-----0--------0--------0-------------------------
F-----------------------------------------------------------------------
C---0-----------------0-------------------------------------------------
G-----------------------------------------------------------------------
D---------------------------3-----------------3-------------------------


d------2-p0-----2-p0-----2-----2-p0-----2-p0-----2----------------------
A---0--------0--------0-------------------------------------------------
F---------------------------3--------3--------3-------------------------
C-----------------------------------------------------------------------
G---3-----------------3-------------------------------------------------
D---------------------------2-----------------2-------------------------


20180403

HOTEL CALIFORNIA FINGERSTYLE GUITAR TAB


The Eagles - Hotel California fingerstyle tab based on James Bartholomew's version
It's arranged in standard tuning and no Capo is used
Download the TAB under the video



HOTEL CALIFORNIA FINGERSTYLE TAB

GP5 + GP6 + PDF >>

Intro

e-------------------7-------------------------9-------------------------
B-------------7-----------------7.------------------11------------------
G---------7-------7---------7---9.--------9-------9---------------------
D-------9-------9-------------------8---8-------8-----------------------
A-----------------------------------9-------9-------9-------------------
E---7-------7-------7---------------------------------------------------


e-------------7-------------------------------------7-------------------
B---10--------------10------------------------7-------------------------
G---------9-------9---------9-------------7-------7---------------------
D-------7-------7-------7-------7.------6-------6-----------------------
A---0-------0-------0-------0-------7-------7-------7-------------------
E-----------------------------------------------------------------------


e-------------------7----------7h10.------------------------------------
B---8---------8-----------8h10--------10----------------10--------------
G---------7-------7------------------------------11-----------11--------
D-------9-------9-------9--------------------12-------------12------12.-
A---10-----10-------10---------------------12------12.--9---------------
E-------------------------------------10-------10---------------10------


20180325

THE VIOLENTS A CLOSER WALK TAB (GUITAR INSTRUMENTAL)


The Violents play A Closer Walk - vintage guitar instrumental song
It's played with a classic Fender Stratocaster in standard tuning
Download the TAB under the video



THE VIOLENTS A CLOSER WALK TAB

Part 1

e---0---------------2---------------0---------------2-------------------
B---0---------------0---------------0---------------0-------------------
G---1---------------2---------------1---------------2-------------------
D---2---------------1---------------2---------------1-------------------
A---2---------------2---------------2---------------2-------------------
E---0-------------------------------0-----------------------------------


     ........... ... ... ... ... ... ................................
e---7-----------8---9-------7---6---5-----------------------------------
B-----------------------9-----------------------------------------------
G-----------------------------------------------------------------------
D-----------------------------------------------------------------------
A------ tremolo picking ------------------------------------------------
E-----------------------------------------------------------------------


      ..........  ...  ...  ... ...  ...  ... ... ...................
e---14----------12---11--------9---11---12---9---7----------------------
B-------------------------12--------------------------------------------
G-----------------------------------------------------------------------
D-----------------------------------------------------------------------
A-----------------------------------------------------------------------
E-----------------------------------------------------------------------