20191114

EDELWEISS CLASSICAL GUITAR TAB


Richard Rodgers - Edelweiss classical guitar cover played by Fumio Miyashita
It's arranged in standard tuning and no Capo is used
Download the TAB under the video



EDELWEISS TAB

GP5 + GP6 + PDF >>

Part 1

e---0-----------5-----------2-----------0-------------------------------
B---2-----------5-----------3-----------3-------------------------------
G---2-----------6-----------2-----------1-------------------------------
D-----------------------------------------------------------------------
A-----------------------------------------------------------------------
E-------0---0-----0-0---0-------0---0-----0-0---0-----------------------


e-----------0---7-----------5-------0-----------0-----------------------
B---2---------------5---5---5-----------3-----3---3---------------------
G---2---------------7---7---6---6-----------2---------------------------
D-------2---------6---6-------7-----------4-----------------------------
A---0-----------------------0-----------0-------------------------------
E---------------0-------------------------------------------------------


e-----------------------0---2-----------0-------------------------------
B---2-------2---2---3-----------3---3-------0---3-----------------------
G---2-----------2-2---2---------2---2-------1---1-----------------------
D-------2-------4-------------4---4-------2---2-------------------------
A---0-----------------------2-------------------------------------------
E---------------------------------------0-------------------------------


20191111

BIG MAMA THORNTON HOUND DOG TAB (SOLO)


Willie Mae 'Big Mama' Thornton - Hound Dog recorded back in 1952
There is a dirty blues solo around 1:05 in this version (in half-step down tuning)
Download the TAB under the video



BIG MAMA THORNTON HOUND DOG SOLO TAB

GP5 + GP6 + PDF >>

Solo ( ~ 1:05)

     E
eb---------7----7-7----7-7----7-7-----7--------0------0-----------------
Bb---------8'---9-8'---9-8'---9-8'----8(9)---------3'-0-----------------
Gb----------------------------------------------------------------------
Db----------------------------------------------------------------------
Ab----------------------------------------------------------------------
Eb---0------------------------------------------------------------------


     E
eb---------7----7-7----7-7----7-7-----7--------0------0-----------------
Bb---------8'---9-8'---9-8'---9-8'----8(9)---------3'-0-----------------
Gb----------------------------------------------------------------------
Db----------------------------------------------------------------------
Ab----------------------------------------------------------------------
Eb---0------------------------------------------------------------------


     A
eb-------7--7-----------------------------------------------------------
Bb-------8'-8'---8'-5---------5-8'----5---5-5---------------------------
Gb------------------------6-----------------------6.--------------------
Db----------------------------------------------------------------------
Ab---0------------------------------------------------------------------
Eb----------------------------------------------------------------------


20191107

CHRIS KLAFFORD IMAGINE TAB (AMERICA'S GOT TALENT 2019)


Chris Kläfford sings Imagine by John Lennon live at America's Got Talent 2019
It's in standard tuning with Capo on the 6th string
Download the TAB under the video



CHRIS KLAFFORD IMAGINE TAB

GP5 + GP6 + PDF >>

- Capo on the 6th fret - 

Intro

e-----0-----0-----0---------------0---------0---------------0-----------
B-------1-----1-------1-----0---------1-----------1---------------1-----
G---------0-----0-------0-----0---------2-----2-------2---2---2---------
D-----------------------------------3-----3-----3---3---3-------3-------
A---3---------------3-----3-----3---------------------------------------
E-----------------------------------------------------------------------


e-----------0---------------------0---------0---------------0-----------
B-----1-----------1---------0---------1-----------1---------------1-----
G-------0-----0-------0---0---0---------2-----2-------2---2---2---------
D-----------------------------------3-----3-----3---3---3-------3-------
A---3-----3-----3---3---3-------3---------------------------------------
E-----------------------------------------------------------------------


Verse

e-----------0---------------------0---------0---------------0-----------
B-----1-----------1---------0---------1-----------1---------------1-----
G-------0-----0-------0---0---0---------2-----2-------2---2---2---------
D-----------------------------------3-----3-----3---3---3-------3-------
A---3-----3-----3---3---3-------3---------------------------------------
E-----------------------------------------------------------------------


20191102

GUITAR KING TAB (HANK THE KNIFE AND THE JETS)


Hank the Knife & the Jets play Guitar King (1975) live at Lloyd in 2014 ...
Henk Bruysten is playing a Fender Bass VI (six string bass guitar)
Download the TAB under the video



HANK THE KNIFE AND THE JETS GUITAR KING TAB

GP5 + GP6 + PDF >>

Intro

e-----------------------------------------------------------------------
B-----------------------------------------------------------------------
G-----------------------------------------------------------------------
D-----------------------------------------------------------------------
A-------0-------0----0----------------0-------0----0--------------------
E---4'------4'---4'---4'--4'--4'--4'------4'---4'---4'--4'--4'----------


e-----------------------------------------------------------------------
B-----------------------------------------------------------------------
G-----------------------------------------------------------------------
D-----------------------------------------------------------------------
A-------0-------0----0----------------0-------0----0--------------------
E---4'------4'---4'---4'--4'--4'--4'------4'---4'---4'--4'--4'----------


Verse

e-----------------------------------------------------------------------
B-----------------------------------------------------------------------
G-----------------------------------------------------------------------
D----------------2----------------2---------0h1----4---------0h1----4---
A---0-----3h4--------0-----3h4--------2----------------2----------------
E-----------------------------------------------------------------------


20191027

WANTED DEAD OR ALIVE FINGERSTYLE TAB (TOMI PALDANIUS)


Bon Jovi - Wanted Dead Or Alive fingerstyle guitar cover played by Tomi Paldanius
It's arranged in Dropped D tuning and no Capo is used
Download the TAB under the video



WANTED DEAD OR ALIVE FINGERSTYLE TAB

GP5 + GP6 + PDF >>

 - Dropped D tuning -

Part 1

e---------13-------12-------10-------8-------5-------3---3\--1----------
B-----------------------------------------------------------------------
G-------14--14---12--12---10--10---9---9---5---5---4---4-4\--2----------
D--------------0-----------------0---------------0----------------------
A-----------------------------------------------------------------------
D---0-------------------0----------------0---------------0---0----------


e---------13-------12-------10-------8-------5-------3---3\--1----------
B-----------------------------------------------------------------------
G-------14--14---12--12---10--10---9---9---5---5---4---4-4\--2----------
D--------------0-----------------0---------------0----------------------
A-----------------------------------------------------------------------
D---0-------------------0----------------0---------------0---0----------


e-------------------------0-------------------------------0-------------
B-----------------------------3-3-----------------------------3-3-------
G---------------------------------2-------------------------------2-----
D-----------0---3'--0-----------------------0---3'--0-------------------
A---0-0-3'--------------------------0-0-3'------------------------------
D-----------------------------------------------------------------------