20220116

DEÁK BILL GYULA - A FELSZARVAZOTTAK BALLADÁJA TAB (GUITAR PRO)


Deák Bill Gyula - A Felszarvazottak Balladája hungarian blues rock song from 1984
The whole lead guitar line is transcribed
Download the TAB under the video



A FELSZARVAZOTTAK BALLADÁJA TAB

PDF + GUITAR PRO >>

Intro

e-----------------------------------------------------------------------
B-----------------------------------------------------------------------
G---------------5---------------------3---3-----------------------------
D---6/7---7-9-7-7---7-9---6\5---5-7-5-5---5-----------------------------
A---4/5---5-5-5-5---5-5---4\3---3-3-3-3---3-----------------------------
E-------------------------------------------6'----3.--------------------


e-------3----------------------------------------3----------------------
B---2/3---6p3---------------3------------------3---6/8------------------
G-------------6p5p3---5-3h4---3(4)---------3h4--------------------------
D-------------------5---------------------------------------------------
A------------------------------------5-5--------------------------------
E-----------------------------------------------------------------------


Verse

e-----------------------------------------------------------------------
B-----------------------------------------------------------------------
G----------4\3.------------4/5.-------4\3.------------------------------
D----------x---------------x----------x---------------------------------
A----------4\3.------------4/5.-------4\3.------------------------------
E-----------------------------------------------------------------------

20220109

SHADOWY MEN ON A SHADOWY PLANET - MECCA TAB



Shadowy Men On A Shadowy Planet - Mecca vintage instrumental guitar song
Download the TAB under the video



SHADOWY MEN ON A SHADOWY PLANET MECCA TAB

PDF + GUITAR PRO >>

Part 1

e-----------------------------------------------------------------------
B-----------------------------------------------------------------------
G---14~---14~---14-15-14-13-14~---14~---14-15-14-13---------------------
D-----------------------------------------------------------------------
A-----------------------------------------------------------------------
E-----------------------------------------------------------------------


e-----------------------------------------------------------------------
B-----------------------------------------------------------------------
G---14~---14-14-13h14~---14-14-13h14-14-12-12---------------------------
D---------------------------------------------15-15-14\-----------------
A------------------------------------------------------0----------------
E-----------------------------------------------------------------------


e-----------------------------------------------------------------------
B-----------------------------------------------------------------------
G----------------7---7h9-7~-----77-7-7-7h9-7---7h9-7\-------------------
D-------3/---7----------------------------------------------------------
A---5-------------------------------------------------------------------
E-----------------------------------------------------------------------

20211229

SPANISH INSTRUMENTAL GUITAR TAB


Beautiful Relaxing Romantic Spanish Instrumental Acoustic Guitar Music - 3 Hours ...
Track #1 on the selection by Spa Massage Music World - Relaxing Music
Download the TAB under the video



SPANISH INSTRUMENTAL GUITAR TAB

PDF + GUITAR PRO >>

Track #1

e-----------------------------------------------------------------------
B---------1-----1---------1-----1---------3-----3---------3-----3-------
G-------2---2-----2-----2---2-----2-----4---4-----4-----4---4-----4-----
D-----2-------2-------2-------2-------2-------2-------2-------2---------
A---0---------------0---------------------------------------------------
E-----------------------------------3---------------3-------------------


e-----------------------------------------------------------------------
B---------0---------------0---------------0---------------0-------------
G---------------2---------------2---------------1---------------1-------
D-------3-----3---3-----3-----3---3-----3-----3---3-----2-----2---2-----
A-----3-----3---------3-----3---------2-----2---------2-----2-----------
E---1---------------1---------------0---------------0-------------------


e-----------------------------------------------------------------------
B---------1-----1---------1-----1---------3-----3---------3-----3-------
G-------2---2-----2-----2---2-----2-----4---4-----4-----4---4-----4-----
D-----2-------2-------2-------2-------2-------2-------2-------2---------
A---0---------------0---------------------------------------------------
E-----------------------------------3---------------3-------------------

20211222

DUST IN THE WIND FINGERSTYLE TAB


Kansas - Dust in the Wind fingerstyle classical guitar cover by Michael Lucarelli
It's arranged in standard tuning and no Capo is used
Download the TAB under the video



DUST IN THE WIND FINGERSTYLE TAB

PDF + GUITAR PRO >>


e-----------------------------------------------------------------------
B---1---------1-----0---------0-----3---------3-----1---------1---------
G---------0-------0-------0-------0-------0-------0-------0-------0-----
D-------2-------2-------2-------2-------2-------2-------2-------2-------
A---3-------3-------3-------3-------3-------3-------3-------3-----------
E-----------------------------------------------------------------------


e-----------------------------------------------------------------------
B---0---------0-----3---------3-----1---------1-----0---------0---------
G---------2-------2-------2-------2-------2-------2-------2-------0-----
D-------2-------2-------2-------2-------2-------2-------2-------2-------
A---0-------0-------0-------0-------0-------0-------0-------0-----------
E-----------------------------------------------------------------------


e-----------------------------------------------------------------------
B---3---------3-----1---------1-----0---------0-----1---------1---------
G---------0-------0-------0-------0-------0-------0-------0-------0-----
D-------2-------2-------2-------2-------2-------2-------2-------2-------
A---3-------3-------3-------3-------3-------3-------3-------3-----------
E-----------------------------------------------------------------------

20211213

BILLY STRINGS - BOUND TO RIDE TAB


Billy Strings plays Bound To Ride by Peter Rowan (live 11/10/2020)
It's in Dropped D tuning with CAPO on the 5th fret
Download the TAB under the video



BOUND TO RIDE TAB

PDF + GUITAR PRO >>


e-------------------------------0-0-------------x-----3-----2---2-2-----
B-------------------------------0-0-------------3-----3-----3---3-3-----
G-------------------0-----0-----0---------------2-----2-----2---2-2-----
D-----------0-----------0-------0---0-----------0-----0-0-0-0---0-0-----
A-------0-2-----2/5---5-----5---5-----2-0-------0---0---0-0-0---0-0-----
D---0-4-----------------------------------4-0-------0---0---0---0-------


e-------------------------------0-0-------------x-----3-----2---2-2-----
B-------------------------------0-0-------------3-----3-----3---3-3-----
G-------------------0-----0-----0---------------2-----2-----2---2-2-----
D-----------0-----------0-------0---0-----------0-----0-0-0-0---0-0-----
A-------0-2-----2/5---5-----5---5-----2-0-------0---0---0-0-0---0-0-----
D---0-4-----------------------------------4-0-------0---0---0---0-------


e-------------------------------0-0-------------------3-----2---2-2-----
B-------------------------------0-0-------------3-----------3---3-3-----
G-------------------0-----0-----0-------------------2-----2-----2-2-----
D-----------0-----------0-------0---0-------------0-----0-------0-0-----
A-------0-2-----2/5---5-----5---5-----2-0-----------------------0-0-----
D---0-4-----------------------------------4-0-------------------0-------