20210409

JACOB GUREVITSCH - LOVERS IN PARIS TAB


Jacob Gurevitsch plays Lovers in Paris - beautiful romantic spanish guitar song
Both acoustic guitar lines are transcribed
Download the TAB under the video



LOVERS IN PARIS TAB

PDF + GUITAR PRO >>

Intro

e---------3---------------3---------------3---------------3-------------
B-------------3---3-----------3---3-----------3---3-----------3---3-----
G-------3-------3-------3-------3-------3-------3-------3-------3-------
D---5---------------5---------------5---------------5-------------------
A-----------------------------------------------------------------------
E-----------------------------------------------------------------------


e-(harp)--3---------------3---------------3---------------3-------------
B-------------3---3-----------3---3-----------3---3-----------3---3-----
G-------3-------3-------3-------3-------3-------3-------3-------3-------
D---5---------------5---------------5---------------5-------------------
A-----------------------------------------------------------------------
E-----------------------------------------------------------------------


e---------3---------------3---------------3---------------3-------------
B-------------4---4-----------4---4-----------4---4-----------4---4-----
G-------5-------5-------5-------5-------5-------5-------5-------5-------
D---5---------------5---------------5---------------5-------------------
A-----------------------------------------------------------------------
E-----------------------------------------------------------------------

20210327

BRYAN SUTTON - THE GOOD DEED TAB


Bryan Sutton - The Good Deed relaxing guitar song from the album "Ready To Go"
It's in standard tuning with CAPO on the 1st fret
Download the TAB under the video



BRYAN SUTTON - THE GOOD DEED TAB

PDF + GUITAR PRO >>

Intro

e-----------3-----------3--------------3h5--h6p5p3----------------------
B-------3-----------3-----------------3------------------3h5-------3----
G---0-----------0--------------------0---------------0---------0--------
D-----------------------------------------------------------------------
A-----------------------------------------------------------------------
E-----------------------------------------------------------------------


e---3-------------------5---------------3---------------------------5---
B----3--------------3-------3---------------1-------------------3-------
G-----5-4---------------------------0-----------0-----------2-----------
D-----------5---4---------------4\2-----------------2---0---------------
A-----------------------------------------------------------------------
E-----------------------------------------------------------------------


Part 1

e-----------------------------------------------0---------------0-------
B-----------3---3---------------3-----------3---------------3-----------
G-----------2h4-0h2---------0-----------0---------------0---------------
D-------0---------------0-----------------------------------------------
A-----------------------------------2---------------3-------------------
E---3---------------3---------------------------------------------------

20210318

PHIL COOK - FRAZEE TAB (LIVE)


Phil Cook & His Feat - Frazee live at The Farm (Hillsborough, NC)
It's in Open D tuning with CAPO on the 2nd fret
Download the TAB under the video



PHIL COOK - FRAZEE TAB

PDF + GUITAR PRO >>

Part 1

D---7-----------9.--7-------4-------4----------0----0-------------------
A-----------------------------------------------------------------------
Gb--8-----------8.--7-------6-------5----------5----4-------------------
D-------0-------0.------0-------0-------0-------0-------0-------0-------
A-----------------------------------------------------------------------
D---0-------0-------0-------0-------0-------0-------0-------0-----------


D---7----------9----7---------4-------0---------------------------------
A-----------------------------------------------------1-----------------
Gb--8----------8----7-------5/6-------5---------------1-----------------
D-------0-------0.------0.--------0-------0-------0-------0-------0-----
A-----------------------------------------------------------------------
D---0-------0-------0---------0-------0-------0-------0-------0---------


D----7----------9-\--7-------4---------4----------4------0--------------
A---------------------------------------------7-------------------------
Gb-1/8----------8-\--7-------6------6\5---5-----------5\4---------------
D--------0-------0-------0-------0---------0-------0---------0-------0--
A-----------------------------------------------------------------------
D----0-------0---------------0---------0-------0---------0-------0------

20210306

LA CUMPARSITA TANGO CLASSICAL GUITAR TAB (SILVER RAIN)


La Cumparsita - Tango fingerstyle classical guitar cover by "Silver Rain"
It's in standard tuning and she is playing with true passion
Download the TAB under the video



LA CUMPARSITA FINGERSTYLE TAB

GUITAR PRO + PDF >>


Part 1

e---0.---10---7.---4------0-1-0------0----------------------------------
B---0.---9----5.---3------------4.--------------------------------------
G---1.---9----7.---4----------------------------------------------------
D---2.------------------------------------------------------------------
A---2.------------------------------------------------------------------
E---0.------0-0.-----0-0.-----0-0.---0----------------------------------


e---0.---12---8.---5------0-1-0------0----------------------------------
B---1.---10---10.--5------------4.--------------------------------------
G---2.---9----9.---5----------------------------------------------------
D---2.------------------------------------------------------------------
A---0.------0-0.-----0--------------------------------------------------
E----------------------0.-----0-0.---0----------------------------------


e---0.---10---7.---4------0-1-0------0----------------------------------
B---0.---9----5.---3------------4.--------------------------------------
G---1.---9----7.---4----------------------------------------------------
D---2.------------------------------------------------------------------
A---2.------------------------------------------------------------------
E---0.------0-0.-----0-0.-----0-0.---0----------------------------------

20210226

CASABLANCA CLASSICAL GUITAR TAB (THU LE)


Bertie Higgins - Casablanca classical guitar cover played by Thu Le
It's arranged in standard tuning and no capo is used
Download the TAB under the video



CASABLANCA CLASSICAL GUITAR TAB

PDF + GUITAR PRO >>


Intro

e-------5-------------------------------5-------------------------------
B-----5-------5.------3.--------5-----5-------5.------3.----------------
G---7-----5-------4-------5---------7-----5-------4-------5-------------
D---7-------------5-------7---------7-------------5-------7-------------
A-----------------------------------------------------------------------
E---------------------------------0-----------------------------0-------


e-------5-------------------------------5-------------------------------
B-----5-------5.------3.--------5-----5-------5.------3.----------------
G---7-----5-------4-------5---------7-----5-------4-------5-------------
D---7-------------5-------7---------7-------------5-------7-------------
A-----------------------------------------------------------------------
E---------------------------------0-----------------------------0-------


Verse

e-----------------------------------------------------------------------
B-----------------------------------------------------------------------
G------4/5~-5~-5p4-4-4-4-2---2---------------2---------------2----------
D----------------------------------5-5-5-----------3-------3-----3---0--
A--0-------------------0---------------5-------------0-5-----------0----
E-----------------------------------------------------------------------