20181111

BOYCE AVENUE GIRLS LIKE YOU TAB (ACOUSTIC)


Maroon 5 - Girls Like You acoustic cover played by Boyce Avenue
It's arranged with a single acoustic guitar in 1 step down tuning
Download the TAB under the video



GIRLS LIKE YOU ACOUSTIC TAB

GP5 + GP6 + PDF >>

- 1 step down tuning -
Intro

d-----------------------------------------------------------------------
A-----------------------------------------------------------------------
F-----------------------------------------------------------------------
C-------5-5-5-5-5-5-5---x-3---x-2-------5-5-5-5-5-5-5---x-7---x-2-------
G---3-------------------------------3-----------------------------------
D-----------------------------------------------------------------------
    x   x x x x x x x   x x   x x   x   x x x x x x x   x x   x x


d-----------------------------------------------------------------------
A-----------------------------------------------------------------------
F-----------------------------------------------------------------------
C-------5-5-5-5-5-5-5---x-3---x-2---0---x-2-x-2-0---0---x-2-x-2-0-------
G---3-------------------------------------------------------------------
D-----------------------------------------------------------------------
    x   x x x x x x x   x x   x x   x   x x x x x   x   x x   x x


Verse

d-----------------------------------------------------------------------
A-----------------------------------------------------------------------
F---5-----------------------------2-------------------------------------
C---5--------------5--------------2---------------3---------------------
G---3--------------5--------------0---------------3---------------------
D------------------3------------------------------1---------------------


20181105

O SOLE MIO CLASSICAL GUITAR TAB (GIANNI PALAZZO)


O Sole Mio classical guitar arrangement played by Gianni Palazzo
The low E and the A strings are tuned down D and G
Download the TAB under the video



O SOLE MIO CLASSICAL GUITAR TAB

PDF >>

 - Open G6 tuning (DGDGBE) -
Part 1

e-------3----3--------2-------------------------------------------------
B------------------5-----3----------------------------------------------
G---------------5----------------4-----------4--------------------------
D-----------------------------4----4-2-----2---2p0----------------------
G------------------------0-----------------------0----------------------
D------------0-----------------------0----------------------------------


e-------2----2--------0-------------------------------------------------
B------------------0--2--1----------------------------------------------
G---------------0-----0----------0--------------------------------------
D-----------------------------2----2--------4---------------------------
G------------4--------3--2---------------7----7\-5~---------------------
D------------------------------------0----------------------------------


e-------2----2--------0--0----------------------------------------------
B---------------------------------3--3--------1--0----------------------
G---------------2--------------0----------------------------------2-----
D---------------------------2-----------0--4--------0-----0-------------
G------------5-----4-----2-----------------------------6-----5----------
D------------------------------------0--------2--4----------------------


20181024

STEVE TERREBERRY CARELESS WHISPER TAB (FULL)


George Michael - Careless Whisper electric guitar cover by Steve Terreberry
It's arranged in standard tuning with backing track
Download the TAB under the video



CARELESS WHISPER ELECTRIC GUITAR TAB

GP5 + GP6 + PDF >>

Intro

e-----------------------------------------------------------------------
B-----------------------------------------------------------------------
G----------5--/7~~~-----------------------------------------------------
D----5-5-7--------------------------------------------------------------
A-----------------------------------------------------------------------
E-----------------------------------------------------------------------
     x x x

e-----------------------------------------------------------------------
B-----------------------------------------------------------------------
G----5/7\5--------------------------------------------------------------
D----------5/7\5~~~-----------------------------------------------------
A-----------------------------------------------------------------------
E-----------------------------------------------------------------------


e-----------------------------------------------------------------------
B-----------------------------------------------------------------------
G--------5---/9~-------10---\7~~~---------------------------------------
D----5-7----------------------------------------------------------------
A-----------------------------------------------------------------------
E-----------------------------------------------------------------------
     x x

20181022

KFIR OCHAION MY IMMORTAL TAB (INSTRUMENTAL ELECTRIC GUITAR TAB)


Evanescence - My Immortal instrumental electric guitar cover by Kfir Ochaion
Awesome lead guitar playing with an old Fender Stratocaster
Download the TAB under the video



MY IMMORTAL ELECTRIC GUITAR TAB

GP5 + GP6 + PDF >>

Part 1

e-----------------------------------------------------------------------
B-----------------------------------------------------------------------
G-------2~--2~--2~--2-2~---/4/6~~~--------------------------------------
D-----------------------------------------------------------------------
A-----------------------------------------------------------------------
E-----------------------------------------------------------------------


e-----------------------------------------------------------------------
B-----------------------------------------------------------------------
G-----------2~--2~--2-2~----2~------/6~------7p6---\4\2~~~--------------
D-----------------------------------------------------------------------
A-----------------------------------------------------------------------
E-----------------------------------------------------------------------


e-----------------------------------------------------------------------
B-----------------------------------------------------------------------
G------9-9-9~--\7~--6~-------------/9~--9~--\7---6--p4h6---(7)(6)~------
D-----------------------------------------------------------------------
A-----------------------------------------------------------------------
E-----------------------------------------------------------------------


20181014

NOW AND FOREVER FINGERSTYLE TAB (TOMI PALDANIUS)


Richard Marx - Now And Forever acoustic fingerstyle guitar cover by Tomi Paldanius
It's arranged in standard tuning and no Capo is used
Download the TAB under the video



NOW AND FOREVER FINGERSTYLE TAB

GP5 + GP6 + PDF >>

Intro

e-----------3-----------------------------------3-----------------------
B---0-------0-------0---1--/3.--1---------------1-----------1p0---------
G---0---------------0---0-------0-----------0-------------------0-------
D-------0-------0-----------------------2---------------2---------------
A-----------------------------------------------------------------------
E---3-------------------------------3-----------------------------------


e-----------3-----------------------------------3-----------------------
B---0-------0-------0---1--/3.--1---------------1-----------------------
G---0---------------0---0-------0-----------0---------------0-----------
D-------0-------0-----------------------2---------------2-------2-------
A-----------------------------------------------------------------------
E---3-------------------------------3-----------------------------------


Part 1

e-----------------------------------------------------------------------
B-----------------------------------0-------0-------------------0-------
G-----------0-------------0-----2-----------0---------------2-----------
D-------0-------0---4-------------------2-------2-------2---------------
A-------------------5---------------------------------------------------
E---3---------------2---------------0---------------0-------------------