20210611

PART OF YOUR WORLD FINGERSTYLE TAB (KANAHO)


The Little Mermaid - Part of Your World acoustic fingerstyle guitar cover by Kanaho
It's arranged in DADGAD tuning with Capo on the 3rd fret
Download the TAB under the video



ALAN MENKEN PART OF YOUR WORLD ACOUSTIC FINGERSTYLE TAB

GUITAR PRO + PDF >>

Intro

d---------0-------0-------2-------2-------0-------0-------2-------2-----
A-----0h2-----0h2-----2h4-----2h4-----0h2-----0h2-----2h4-----2h4-------
G---0-------0-------2-------2-------0-------0-------2-------2-----------
D-----------0---------------2---------------0---------------2-----------
A-------------------0-------------------------------0-------------------
D---5-------------------------------5-----------------------------------


d------------------------------------2----------------------------------
A---2--4--5--5--------------4-/5----------------------------------------
G---------0-----------0-----------2-----------2-------------------------
D------0-----------0-----------2-----------2----------------------------
A---------------2-----------0-----------4-------------------------------
D---5-------------------------------------------------------------------


d------------------------------------2--2-------------------------------
A---2---4----5--------4--5--4---5---------------------------------------
G---------0-----------0-----------2-----------2-------------------------
D------0-----------0-----------2-----------2----------------------------
A---------------2-----------0-----------4-------------------------------
D---5-------------------------------------------------------------------

20210526

LIVING ON A PRAYER INSTRUMENTAL ELECTRIC GUITAR TAB


Bon Jovi - Living on a Prayer instrumental electric guitar cover by Tanguy Kerleroux
It's arranged in standard tuning with backing track
Download the TAB under the video



LIVING ON A PRAYER TAB

PDF + GUITAR PRO >>


Intro

e---<12>-~~~------------------------------------------------------------
B-----------------------------------------------------------------------
G-----------------------------------------------------------------------
D-----------------------------------------------------------------------
A-----------------------------------------------------------------------
E-----------------------------------------------------------------------


e-----------------------------------------------------------------------
B-----------------------------------------------------------------------
G-----------------------------------------------------------------------
D-----------------------------------------------------------------------
A-----7-0-5-----------7-0-5-----------7-0-5-----------7-0-5-------------
E---0-------0-0-0-7-0-------0-0-0-7-0-------0-0-0-7-0-------0-0-12\-0---
    x   x   x x x   x   x   x x x   x   x   x x x   x   x   x x     x


e-----------------------------------------------------------------------
B-----------------------------------------------------------------------
G-----------------------------------------------------------------------
D---5-~~~-----------7-~~~-----------------------------------------------
A---3-~~~-----------5-~~~-------------7-0-5-----------7-0-5-------------
E-----------------------------------0-------0-0-0-7-0-------0-0-7-0-----
                                    x   x   x x x   x   x   x x   x

20210520

TANGO TO EVORA FINGERSTYLE GUITAR TAB


Loreena McKennitt - Tango to Evora fingerstyle guitar cover by Vitales Sy
It's arranged in standard tuning and no Capo is used
Download the TAB under the video



TANGO TO EVORA FINGERSTYLE TAB

PDF + GUITAR PRO >>

e-----------------------------------------------------------------------
B-----------------------------------------------------------------------
G-------------2-0-------------2-0-------------2-0-------------2-0-------
D---------2-4-----4-2-----2-4-----4-2-----2-4-----4-2-----2-4-----4-----
A-------2---------------2---------------2---------------2---------------
E---0-------0-------0-------0-------0-------0-------0-------0-----------


e---------------------------0-------------------------------------------
B-----0-0-0-1---0-----0-0-0-----0-----------0---------------0-----------
G-----0-0-0-----0-----0-0-0---0-------2-2-2-----2-----2-2-2-----2-------
D-------------2-----------------------1-1-1---1---1---1-1-1---1---1-----
A-----------------2-------------0-1-2-------2-------2-------2-----------
E---0-------0-------0-------0-------------------------------------------


e-----------------------------------------------------------------------
B-----------------------------------------------------------------------
G---0-0-0-0-2---0-----0-0-0-2---0-----------0---------------0-----------
D-----2-2-2---2-------2-2-2---2---0-4-4-4-4-----4-----4-4-4-----4-------
A-----------------2-----------------2-------2-------2-------2-----------
E---0-------0-------0-------0-------------------------------------------

20210509

CAN'T HELP FALLING IN LOVE FINGERSTYLE TAB


Can't Help Falling in Love easy fingerstyle guitar cover played by Michael Lucarelli
It's arranged in standard tuning and no Capo is used
Download the TAB under the video



CAN'T HELP FALLING IN LOVE FINGERSTYLE TAB

PDF + GUITAR PRO >>


e-----------------------------------------------------------------------
B---------1-----------1-------------------------------------------------
G-------0---0-------0---0-----------------------------------------------
D-----2-------2---2-------2---------------------------------------------
A---3-----------3-------------------------------------------------------
E-----------------------------------------------------------------------


e---------------3---------------------------------0---------------------
B---1-----1-----------------1-----1-------------3-----------------------
G-------0---0---------0---------2---2-------2---------------------------
D-----2-------2-----2---2-----2-------2---2---2-------------------------
A---3-------------2-------2-0-----------0-------------------------------
E---------------0-------------------------------------------------------


e---1-----------0-------------------------------------------------------
B---------------------1-----3-------------------------------------------
G---------2---------0---0---------0-----------0---0---------------------
D-------3---3-----2-------2-----0---0-------0---0-----------------------
A-----3---------3-------------2-------2---2-----------------------------
E---1---------1-------------3-----------3-------------------------------

20210429

ELLERT NORDMARK - MUCKARTWIST TAB


Ellert Nordmark plays Muckartwist in Roger Paulsson's studio
Easy guitar instrumental with backing track
Download the TAB under the video



ELLERT NORDMARK MUCKARTWIST TAB

PDF + GUITAR PRO >>

Intro

e-----------------------------------------------------------------------
B-----------------------------------------------------------------------
G-----------------------------------------------------------------------
D---3-3-0-0-------------------------------------------------------------
A-----------3-3-0-0-----------------------------------------------------
E-------------------1.--1.--1-------------------------------------------


Part 1

e-----------------------------------------------------------------------
B---------------------------------------1-1-------------3-3---1---------
G-----------------------------------2---------3-2---3-----------3-------
D---------0-3-0---0-3---1-1---0-----------------------------------------
A---1---1-------1---------------3---------------------------------------
E-----------------------------------------------------------------------


e-----------------------------------------------------------------------
B---------------------------------------1-1-----------------------------
G-----------------------------------2---------3-2---3---3-3~~~----------
D---------0-3-0---0-3---1-1---0-----------------------------------------
A---1---1-------1---------------3---------------------------------------
E-----------------------------------------------------------------------