20201130

BILLY STRINGS - 1935 MARTIN D-18 TAB (ACOUSTIC GUITAR JAM)


Billy Strings plays a 1935 Martin D-18 acoustic guitar with a cool song
Video and guitar provided by Carter Vintage Guitars
Download the TAB under the video



BILLY STRINGS MARTIN D-18 GUITAR DEMO TAB

PDF + GUITAR PRO >>

Part 1

e---1/----3-----3-----3-----5-3-3-3-------------------------------------
B---1/----3-3-3-3-----3-----3-3-3-3-------------------------------------
G---0-----0-0-0-0-------0---0---0---------------------------------------
D---3/5-----5-5-5---------5---------------------------------------------
A-----------------------------------------------------------------------
E-----------------------------------------------------------------------


e---------3-----3-----3-----3-------------------------------------------
B---------3-3-3-3-----3-----3-------------------------------------------
G---------0-0-0-0-------0---0---0---------------------------------------
D---4-------4-4-4---------4-4---0---------------------------------------
A-----------------------------------------------------------------------
E-----------------------------------------------------------------------


e---------------0-----------0-----0-------------------------------------
B---------3-----3-----------3-----3-------------------------------------
G-------------0-------------0---0---------------------------------------
D-------2---2-------------------2---------------------------------------
A---3-------------------3-----------------------------------------------
E-----------------------------------------------------------------------

20201120

ERIC CLAPTON SOMEBODY'S KNOCKING SOLO TAB (LIVE)


Eric Clapton - Somebody's Knocking live at The Royal Albert Hall (2015)
There is a "classic Clapton solo" between 0:38 and 1:47
Download this solo TAB under the video



SOMEBODY'S KNOCKING INTRO SOLO TAB

PDF + GUITAR PRO >>

Intro

e-----------------------------------------------------------------------
B-----------------------------------------------------------------------
G-----------------------------------------------------------------------
D---------------5.---5h7-----p5---------------5.------------------------
A-----/7~-----------------------7.---7~---------------------------------
E-----------------------------------------------------------------------


e----------------------------------------------0------------------------
B-----------------------------------------------------------------------
G------------7.---7h9---7.----------------------------------------------
D------7/9-------------------9\7----p5----------------------------------
A--------------------------------------7--------------------------------
E------------------------------------------0----------------------------


e------------------0.---------------------------------------------------
B------------------0.---------------------------------------------------
G---2---p0--------------------------------------------------------------
D---2------2--------------------------5.---5h7-----p5-------------5.----
A----------------------------/7~----------------------7p5-7~------------
E--------------0--------------------------------------------------------

20201112

KANYE WEST RUNAWAY GUITAR TAB (SCOTT MAEDA)


Kanye West - Runaway electric guitar cover played by Scott Maeda
The guitar is tuned down with 2 notes to CFBbEbGC
Download the TAB under the video



KANYE WEST RUNAWAY TAB

PDF + GUITAR PRO >>

#1

C-------16------16------16--------------15------15------15--------------
G-----------------------------------------------------------------------
Eb------------------------------13------------------------------12------
Bb----------------------------------------------------------------------
F-----------------------------------------------------------------------
C-----------------------------------------------------------------------


C-------13------13------13--------------9------9------8------16---------
G-----------------------------------------------------------------------
Eb------------------------------10--------------------------------------
Bb----------------------------------------------------------------------
F-----------------------------------------------------------------------
C-----------------------------------------------------------------------


#2

C-----------------------------------------------------------------------
G-----------------------------------------------------------------------
Eb----------------------------------------------------------------------
Bb----------------------------------------------------------------------
F-----------------------------------------------------------------------
C----4~------------------------4---4h6-3~-------------------------------

20201106

SUSPICIOUS MINDS ACOUSTIC TAB


Elvis Presley - Suspicious Minds acoustic guitar cover by Lorena Bendz
Great acoustic fingerpicking version in standard tuning
Download this TAB under the video



SUSPICIOUS MINDS ACOUSTIC TAB

PDF + GUITAR PRO >>

Intro

e-----------------------------------------------------------------------
B------0------1-1-------0------1-1-------0------1-1-------0------1-1----
G--------0-----0--0-------0-----0--0-------0-----0--0-------0-----0--0--
D----0-----0h2--------0-----0h2--------0-----0h2--------0-----0h2-------
A-----------------------------------------------------------------------
E--3----------------3----------------3----------------3-----------------


Verse

e-----------------------------------------------1-1--------------1-1----
B------0------1-1-------0------1-1-------1-------1--1-----1-------1--0--
G--------0-----0--0-------0-----0--0-------0-0h2------------0-0h2-------
D----0-----0h2--------0-----0h2--------2----------------2---------------
A------------------------------------3----------------3-----------------
E--3----------------3---------------------------------------------------


e--------2--------------------------------------------------------------
B------3-----3-----------1-------------0------1-1-------0------1-1------
G----2---------2-------0-----0---0-------0-----0--0-------0-----0--0----
D--0-------------0---2---------2-----0-----0h2--------0-----0h2---------
A------------------3----------------------------------------------------
E----------------------------------3----------------3-------------------

20201102

QUARTERMASTER'S STORES SOLO TAB


The Shadows - Quartermaster's Stores guitar cover by Christian Boileau
Vintage instrumental guitar song played with a Fender Stratocaster
Download the TAB under the video



QUARTERMASTER'S STORES TAB

PDF + GUITAR PRO >>

Intro

e------------------------5---5~~~---------------------------------------
B---5-55-5-7-5-------5---5---5~~~---------------------------------------
G--------------7-6-7----------------------------------------------------
D-----------------------------------------------------------------------
A-----------------------------------------------------------------------
E-----------------------------------------------------------------------


Part 1

e--------9~--------9~--------9-7-------------9-7~------------7-9~-------
B-----10-------------------------10-7-----10--------------10------------
G---9---------------------------------9---------------------------------
D-----------------------------------------------------------------------
A-----------------------------------------------------------------------
E-----------------------------------------------------------------------


e--------9~--------9~--------9-7-------------9-7---10---9---7-----------
B-----10-------------------------10-7-----10--------------------10------
G---9---------------------------------9---------------------------------
D-----------------------------------------------------------------------
A-----------------------------------------------------------------------
E-----------------------------------------------------------------------