20201009

JOSÉ GONZALEZ - HEARTBEATS TAB (LIVE)


José Gonzalez plays Heartbeats live in Dingle - relaxing acoustic guitar song
It's in DADF#Be tuning (tune down the low E string and the G strings)
Capo on the 1st fret



JOSÉ GONZALEZ - HEARTBEATS TAB

PDF + GUITAR PRO >>


Intro

e-----------------------------------------------------------------------
B-------------------------------------------------------------0---------
F#----------------3-----------3-------------------3---------------------
D-----0-------0-----------0-------0---0-------0-----------0-------0-----
A-------4h5-5---5---4h5-5---5---0-------4h5-5---5---4h5-5---5---0-------
D---0-------------------------------0-----------------------------------


e-----------------------------------------------------------------------
B-------------0---------------------------------------------------------
F#----------------------------0---------------0---------------0---------
D---------4-------4-------4-------0-------0-------0-------0-------0-----
A---2---2---2---2---0h2-2---0-----------5---5---5---4h5-5---5---0-------
D-------------------------------4---5-----------------------------------


e-----------------------------------------------------------------------
B-------------------------------------------------------------0---------
F#----------------3-----------3-------------------3---------------------
D-----0-------0-----------0-------0---0-------0-----------0-------0-----
A-------4h5-5---5---4h5-5---5---0-------4h5-5---5---4h5-5---5---0-------
D---0-------------------------------0-----------------------------------

20201003

JACOB GUREVITSCH - FOR YOUR LOVE TAB


Savage Rose - For Your Love acoustic guitar cover played by Jacob Gurevitsch
Amazing spanish instrumental acoustic guitar song
Download the TAB under the video



FOR YOUR LOVE ACOUSTIC TAB

PDF + GUITAR PRO >>

Intro

e-------0---5---7~------------------------------------------------------
B-----------------------------------------------------------------------
G-----------------------------------------------------------------------
D-----------------------------------------------------------------------
A-----------------------------------------------------------------------
E-----------------------------------------------------------------------


e-----8-8---8-8---8-8---8-8---8-8---8-8---8-8---8-8---------------------
B---------6-----------6-----------6-----------6-------------------------
G---------------------------5-------------------------------------------
D---------------7-----------------------7-------------------------------
A---5-------------------------------------------------------------------
E-----------------------------------------------------------------------


e-----7-7---7-7---7-7---7-7---5-5---5-5---4-4---4-4---------------------
B---------6-----------6-----------6-----------6-------------------------
G---------------------------7-----------7-------------------------------
D---------------6-------------------------------------------------------
A-----------------------------------------------------------------------
E---0-------------------------------------------------------------------

20200926

SPORTING LIFE BLUES TAB (TOM PALEY)


Brownie McGhee - Sporting Life Blues guitar cover played by Tom Paley
It's in standard tuning and starts at 1:04 on this record by freshwatersmusic
Download the TAB under the video



SPORTING LIFE BLUES TAB

PDF >>

Intro

e--------12--12-12-12--12-12-12--12-12-12--12---9-----------------------
B---/9----------------------------------------------9.---8(9)-----------
G---/9----------------------------------------------------------9-\-----
D-----------------------------------------------------------------------
A-----------------------------------------------------------------------
E-----------------------------------------------------------------------


e--------12-------12-----10-----12---10-----12-10-\---------------------
B---/9---9----9---9------9------9----9------9--9--\---------------------
G---/9------9---9-9----9------9---------9------9--\---------------------
D-----------------------------------------------------------------------
A-----------------------------------------------------------------------
E-----------------------------------------------------------------------


e-------------------------------------------3'-0------------------------
B---------------2.--2-----2---------------------------------------------
G---2.--2-2-----------2-----2.--2-2---2------------0h1------------------
D---------------2.--2-------------------2.--2---------------------------
A---0.--0-3---4-------3---4-0.--0-3---4---------------------------------
E-----------------------------------------------------------------------


20200919

LENNART CLERWALL ADAGIO TAB (LEAD GUITAR)


Lennart Clerwall and Friends - Adagio guitar cover played by Eugene Mago
Vintage instrumental guitar song played with a Fender Stratocaster
Download the TAB under the video



LENNART CLERWALL ADAGIO TAB

PDF >>

Intro

e---------------12------------------------------------------------------
B------------12----12-----------7-8-7-------7h8p7h8p7h8p7h8p7-----------
G------11-12----------12----8-9-------9-8-9-------------------9---------
D---14-------------------14---------------------------------------------
A-----------------------------------------------------------------------
E-----------------------------------------------------------------------


Part 1

e---7~-------7----------------------------------------------------------
B--------------------10-----8-7-----------------------------------------
G---------------------------------9---9~-----------\8---8~--------------
D-----------------------------------------------------------------------
A-----------------------------------------------------------------------
E-----------------------------------------------------------------------


e---8-------8-------7---------------------------------------------------
B---7---------------------10-8---7---7~------------8\7------------------
G---8--------------------------------------------------9----------------
D-----------------------------------------------------------------------
A-----------------------------------------------------------------------
E-----------------------------------------------------------------------

20200914

ZAKK WYLDE FOREVER DOWN SOLO TAB (GAKU)


Black Label Society / Zakk Wylde - Forever Down guitar cover by Gaku
There is a killer guitar solo between 2:28 and 3:01
Download the TAB under the video



FOREVER DOWN SOLO TAB

PDF >>

 - 1 step down tuning -

Solo

d--------12------------12------------12------------12-------------------
A---12h15--15p12--12h15--15p12--12h15--15p12--12h15--15p12--------------
F---------------14------------14------------14------------14------------
C-----------------------------------------------------------------------
G-----------------------------------------------------------------------
D-----------------------------------------------------------------------


d--------12------------12------------12------------12-------------------
A---12h15--15p12--12h15--15p12--12h15--15p12--12h15--15p12--------------
F---------------14------------14------------14------------14------------
C-----------------------------------------------------------------------
G-----------------------------------------------------------------------
D-----------------------------------------------------------------------


d--------14------------14------------14------------14-------------------
A---14h17--17p14--14h17--17p14--14h17--17p14--14h17--17p14--------------
F---------------16------------16------------16------------16------------
C-----------------------------------------------------------------------
G-----------------------------------------------------------------------
D-----------------------------------------------------------------------