20200221

Y Vân - Lòng Mẹ FINGERSTYLE GUITAR TAB (Văn Anh)


Y Vân - Lòng Mẹ (Mother's Heart) acoustic fingerstyle guitar cover played by Văn Anh
Beautiful vietnamese song in standard tuning
Download the TAB under the video



Văn Anh - Lòng Mẹ TAB

GP5 + GP6 + PDF >>

Part 1

e--------------------------------------------0---------------0----------
B--------------------------------------------0---------------0----------
G-------0---2---4~-----2-0---2--p0-----------0---------------0----------
D---2--------------------------------2-----------0---2------------------
A----------------------------------------------------------------2------
E------------------------------------0---------------0------------------


e-----------0---2---3-----2h3p2p0-------2--p0---------------------------
B-------0---------------------------------------------------------------
G-----------------------------------------------------------------------
D-----------------------------------------------------------------------
A-------------------3---------------------------------------------------
E---0-------------------------------------------------------------------


e----------------------------0------------------------------------------
B---0----------------0-------0------------------------------------------
G-----------0----------------2------------------------------------------
D-------0-------\4-------1----------------------------------------------
A--------------------2---------------2.---------------------------------
E---3----------------------------2--------------------------------------


20200212

HALLELUJAH INSTRUMENTAL GUITAR TAB (ROCKMILADY)


Leonard Cohen - Hallelujah instrumental electric guitar cover played by RockMilady
Amazing electric guitar instrumental arranged in standard tuning
Download the TAB under the video



ROCKMILADY HALLELUJAH TAB

GP5 + GP6 + PDF >>

Part 1

e-----------------------------------------------------------------------
B-----------------------------------------------------------------------
G-----------------------------------------------------------------------
D------5---------------5--5/7~-----------5~------------5--5-h7~---------
A---7---------------7-----------------7-------------7-------------------
E-----------------------------------------------------------------------


e-----------------------------------------------------------------------
B-----------------------------------------------------------------------
G-----------------------------------------------------------------------
D---5h7~----7~-------7--5h7p5~-----5\-3-/5~-----------------------------
A-----------------------------------------------------------------------
E-----------------------------------------------------------------------


e-----------------------------------------------------------------------
B-----------------------------------------------------------------------
G-----------7(9).--7~---------------------------------------------------
D-------5.--------------------------------------------------------------
A---5h7-----------------------------------------------------------------
E-----------------------------------------------------------------------


20200208

ROB BOEKHOLT ONCE TAB (GUITAR INSTRUMENTAL)


Rob Boekholt - Once guitar cover played by Ton Tergouw
Vintage guitar instrumental with backing track
Download the TAB under the video



ROBBIE BOEKHOLT ONCE TAB

GP5 + GP6 + PDF >>

Part 1

e---7-----8-9---------9-9~----------------------------------------------
B-----------------------------------------------------------------------
G-----------------------------------------------------------------------
D-----------------------------------------------------------------------
A-----------------------------------------------------------------------
E-----------------------------------------------------------------------


e---7h9p7\5---4---------------------------------------------------------
B---------------7---5-------5~------------------------------------------
G---------------------6---7------------------6-6h7-6-4~-----------------
D-----------------------------------------------------------------------
A-----------------------------------------------------------------------
E-----------------------------------------------------------------------


e---------------------7---7.----7-7~------------------------------------
B-----------------------------------------------------------------------
G---4h6p4\3---4h6---4---------------------------------------------------
D-----------------------------------------------------------------------
A-----------------------------------------------------------------------
E-----------------------------------------------------------------------


20200131

MOLLY TUTTLE THOMPSON GUITAR DEMO TAB


Molly Tuttle's first touch on her new Thompson Brazilian Dreadnought acoustic guitar
She plays a killer country jam around 1:15 in this video
Download this TAB under the video



MOLLY TUTTLE TAB

GP5 + GP6 + PDF >>

Part 1

e-----------------------------------------------------------------------
B-------------------------------0-1-----1---3-1---------0---------------
G-------------------------0-2---------0-----------2-0-------------------
D-------------------0-1h2-----------------------------------------------
A---0---2-3---2-3-------------------------------------------------------
E-----------------------------------------------------------------------


e-----------0---------0-------------------------------------------------
B---------1-------1---------0-1-----------------------------------------
G---0h2---------2-------2---------2-0-----------------------------------
D---------------------------------------2-0-----------------------------
A---------------------------------------------3-------------------------
E-----------------------------------------------------------------------


e-------------------------------------------0---------------------------
B-------------------------------0-1-----4-----1---------1---------------
G-------------------------0-2---------0-----------2-0-------------------
D-------------------0-1h2-----------------------------------------------
A---0---2h3---2-3-------------------------------------------------------
E-----------------------------------------------------------------------


20200125

HALLELUJAH TAB (OZIELZINHO)


Leonard Cohen - Hallelujah electric guitar cover played by Ozielzinho
It's arranged in 1 step down tuning with backing track
Download the TAB under the video



OZIELZINHO HALLELUJAH TAB

GP5 + GP6 + PDF >>

- 1 step down tuning -

Part 1

d-----------------------------------------------------------------------
A-------3-3-3~------\---3-3/5-5-5~------\-------------------------------
F---3/4---------------4-------------------------------------------------
C-----------------------------------------------------------------------
G-----------------------------------------------------------------------
D-----------------------------------------------------------------------


d-----------------------------------------------------------------------
A---------3-3-3~-------h5/8--p7---7-(8)(7)p5-5~-------------------------
F---4-------------------------------------------------------------------
C-----------------------------------------------------------------------
G-----------------------------------------------------------------------
D-----------------------------------------------------------------------


d-----------------------------------------------------------------------
A---3---3/5-------5---5-------5--4/5-------3---3---\-1---1/3~-----------
F-----------------5---5-------5--4/5-------4---4---\-2---2/4~-----------
C-----------------------------------------------------------------------
G-----------------------------------------------------------------------
D-----------------------------------------------------------------------