20190414

SPANISH TANGO TAB (SUARAGITAR)


Lennart Clerwall - Spanish Tango guitar cover played by "Suaragitar"
Vintage guitar instrumental with backing track
Download the TAB under the video



SPANISH TANGO TAB

GP5 + GP6 + PDF >>

Part 1

e-----------------------------------------------------------------------
B-----------------------------------------------------------------------
G---2---2-5/9~--------7-5-7---5---4~-------4----------------------------
D-----2--------------------------------------7-5/7-7~-------------------
A-----------------------------------------------------------------------
E-----------------------------------------------------------------------


e-----------------------------------------------------------------------
B-----------------------------------------------------------------------
G---2---2-5/9~--------7-5-7~----5h7p5-4~-------4------------------------
D-----2------------------------------------------7-5/7-7~---------------
A-----------------------------------------------------------------------
E-----------------------------------------------------------------------


e-----------------------------------------------------------------------
B-----------------------------------------------------------------------
G---5-4-----------------------------------------------------------------
D-------7~--------------------------------------------------------------
A-----------------------------------------------------------------------
E-----------------------------------------------------------------------


20190406

GUITAR BOOGIE TAB (MOCKIGBIRDRAVELLE)


Tommy Emmanuel - Guitar Boogie cover by Mockingbirdravelle
It's played in half-step down tuning on a Taylor acoustic guitar
Download the TAB under the video



GUITAR BOOGIE TAB

GP5 + GP6 + PDF >>

Part 1

eb-------5-----5-----5-----5-----5--------------------------------------
Bb---x-x-8-x-x-8-x-x-8-x-x-8-x-x-8--------------------------------------
Gb---x-x-6-x-x-6-x-x-6-x-x-6-x-x-6--------------------------------------
Db---x-x-5-x-x-5-x-x-5-x-x-5-x-x-5--------------------------------------
Ab---x-x-7-x-x-7-x-x-7-x-x-7-x-x-7---x----------------------------------
Eb-------5-----5-----5-----5-----5---6----------------------------------


eb----------------------------------------------------------------------
Bb----------------------------------------------------------------------
Gb-----7---x-6---5---4---4----------------------------------------------
Db-----6---x-5---4---3---3----------------------------------------------
Ab-----7---x-6---5---4---4----------------------------------------------
Eb---0-x---x-x---x---x---x--0-4---3-------------------------------------


eb---2-----2-----2-----2-----2------------------------------------------
Bb---5-x-x-5-x-x-5-x-x-x-x-x-x---x-x------------------------------------
Gb---3-x-x-3-x-x-3-x-x-2-x-x-2---x-x------------------------------------
Db---2-x-x-2-x-x-2-x-x-1-x-x-1---x-x------------------------------------
Ab---4-x-x-4-x-x-4-x-x-2-x-x-2---x-x------------------------------------
Eb---2-----2-----2------------------------------------------------------


20190331

STEVIE RAY VAUGHAN MARY HAD A LITTLE LAMB SOLO TAB (LIVE)


Stevie Ray Vaughan - Mary Had a Little Lamb live version recorded on 9/21/1985
Our solo part starts at 27:40 and goes up to 29:51 in this video
Download the TAB below



MARY HAD A LITTLE LAMB SOLO TAB

GP5 + GP6 + PDF >>

 - half-step down tuning -

 27:40 - 29:51

eb------------------------------12.-------------------------------------
Bb------------------------------12.-------------------------------------
Gb--12~-------------------------12.--------12--14(16)--(14)-p12--14--14-
Db---------14p12-----12--14.-----------14-------------------------------
Ab--------------14.-----------------------------------------------------
Eb----------------------------------------------------------------------


eb----------------------------------------------------------------------
Bb--12'-----------------------------------------------------------------
Gb--12'---------------------12'--------------12--14(16)--(14)--12'------
Db---------12h14.----14~---------14p12.--14-----------------------------
Ab----------------------------------------------------------------------
Eb----------------------------------------------------------------------


eb---------------------------------------------------------12-----------
Bb--------------------15---------------------------------12--15(17)-----
Gb--14--12--14--(16)------(16)--(14)--12'--14--12--14(16)---------------
Db----------------------------------------------------------------------
Ab----------------------------------------------------------------------
Eb----------------------------------------------------------------------


20190322

HELP ME MAKE IT THROUGH THE NIGHT TAB (FINGERSTYLE)


Help Me Make It Through The Night fingerstyle guitar cover by Chris Crouch
It's arranged in standard tuning and no Capo is used
Download the TAB under the video



HELP ME MAKE IT THROUGH THE NIGHT FINGERSTYLE TAB

GP5 + GP6 + PDF >>

e-----------2-2h3--2--0--2--------2-----------2-------------------------
B---------3-----------------------3-----------2-------------------------
G-------2-------------------2--------2-----2-----2----------------------
D---------------------------0-----------0-------------------------------
A-----------------------------------------------------------------------
E-----------------------------------------------------------------------


e---2---------5---------------------------------------------------------
B---1-----/7-----7~-----5-7-5.---3-----------------3--------------------
G---2----------------------------------0-----------2--------------------
D---0-------------------------------0-----------0-----------------------
A-----------------------------------------------------------------------
E--------------------------------3--------3--2--------2-----------------


e----------0--2--2/3--2--0--3-------------------------------------------
B----------0-------------------------2-----------3----------------------
G--------0---------------------------2----------------------------------
D------2--------------------------2-----2-----4-----4-------------------
A------------------------------0-----------0----------------------------
E---0-------------------------------------------------------------------


20190317

AVE MARIA NO MORRO INSTRUMENTAL GUITAR TAB


Ave Maria No Morro instrumental guitar cover played by Roy Björklund
Easy guitar instrumental with backing track
Download the TAB under the video



AVE MARIA NO MORRO INSTRUMENTAL GUITAR TAB

GP5 + GP6 + PDF >>

Part 1

e-------9-------9-----9------------------9-------9-----9.---------------
B---------9---------------8~---------------9---------------8--\---------
G---9---------9-----9----------------9---------9-----9------------------
D-----------------------------------------------------------------------
A-----------------------------------------------------------------------
E-----------------------------------------------------------------------


e-----------------------------------------------------------------------
B-----------------------------------------------------------------------
G-----------------------------------------------------------------------
D--------------------------2--2~---------222----------2-4-2-2-----------
A---2---222-2~-------2-1-2-------------------4~---------------3~--------
E-----------------------------------------------------------------------


e-----------------------------------------------------------------------
B-----------------------------------------------------------------------
G-----------------------------------------------------------------------
D---2-4-2---------------------------------------------------------------
A---------2--2~---------222~-----2-4-4/6-\--2~~~------------------------
E-----------------------------------------------------------------------