20200405

PETER BRODERICK WITH THE NOTES IN MY EARS TAB


Peter Broderick - With The Notes In My Ears is a nice relaxing acoustic guitar song
Arranged in standard tuning with Capo on the 3rd fret
Download the TAB under the video



WITH THE NOTES IN MY EARS TAB

GP5 + GP6 + PDF >>

 - Capo on the 3rd - 

Intro

e-----0-------------------------------0---------------------------------
B---------1---1-------1-------1-----------0-----------------------------
G-------2---------0-------0-------0h2---2-------------------------------
D---3-----------2-------2-------2---------------------------------------
A-----------3-------3-------3-------------------------------------------
E-----------------------------------------------------------------------


e-----------------------------------------------------------------------
B-----0-------0-------0-------1-----------------------------------------
G---------0-------0-------0-------0-------------------------------------
D-------0-------0-------0-------2---------------------------------------
A---------------------------0-------------------------------------------
E---3-------3-------3---------------------------------------------------


e-------------------------------------------------------------0---------
B-----1-------1-------1-------1-------1-------1-------1-----------1-----
G---------0-------0-------0-------0-------2-------2-------0-----2-------
D-------2-------2-------2-------0-------3-------3-------3---3-----------
A---3-------3-------3-------0-------------------------------------------
E-----------------------------------1-------1-------1-------------------


20200326

BILLY STRINGS BROWN'S FERRY BLUES TAB (STUDIO 31 WEST)


Billy Strings plays Brown's Ferry Blues live at Studio 31 West
It's in standard tuning with Capo on the 2nd fret
Download the TAB under the video



BILLY STRINGS BROWN'S FERRY BLUES TAB

GP5 + GP6 + PDF >>

- Capo on the 2nd fret -

Intro

e----------3.--3-----3---------3-----0----------------------------------
B--0-------3.--3---3---5-3-----3---0-0-1---1---------1-1---1------------
G--2--/4-----------4-------4-------4---3---2---0-----0-3---2---0-0------
D------------------------------------------------0-2p0-------------2-0--
A-----------------------------------------------------------------------
E-----------------------------------------------------------------------


e----------------------0---------------0-----3-----2-----2---2-0-0------
B----------------------0---3.--2.--1---1-----1-----1---1-1---1-1-1------
G------------------0-------4.--3.--2---2---2-------2---2---2------------
D------------0-2p0-----------------------------0---0---0---0------------
A------0-1/2---------------------------------------0--------------------
E--3-----------------------------------------------x--------------------


e--------3.--3-----3---------3-----0------------------------------------
B--------3.--3---3---5-3-----3---0-0-1---1---------1-1---1--------------
G--2/4-----------4-------4-------4---3---2---0-----0-3---2---0----------
D----------------------------------------------0-2p0--------------------
A-----------------------------------------------------------------------
E-----------------------------------------------------------------------


20200323

LOCAL HERO WILD THEME TAB (GOING HOME - DIRE STRAITS)


Local Hero - Wild Theme is a Dire Straits song called Going Home
Guitar cover played by Roberto Sánchez Perea
Download the TAB under the video



GOING HOME TAB

GP5 + GP6 + PDF >>

Part 1

e-----------------------------------------------------------------------
B------------7-----7-------7-----------------7~-------------------------
G------------7---7---9---9---------------7-9----------------------------
D---7~---------7-------7-----7---7-----7--------------------------------
A------------------------------9---9------------------------------------
E-----------------------------------------------------------------------


e-----------------------------------------------------------------------
B---10-------8-------10-----10-9-----10-------------7-9-10~-------------
G---7----7-----------6----6--------6----6---6-----6---------------------
D------7---7---------7--7--------7--------7---7-------------------------
A-----------------------------------------------------------------------
E-----------------------------------------------------------------------


e-----------------------------------------------------------------------
B------7-9-10~-----12-10-9~-----\7-7~-----------------------------------
G---/6------------------------------------------------------------------
D-----------------------------------------------------------------------
A-----------------------------------------------------------------------
E-----------------------------------------------------------------------


20200312

LARRY THE LOGGER TWO-STEP TAB (PAT SIMMONS LIVE AT NORMAN'S RARE GUITARS)


Pat Simmons (The Doobie Brothers) plays his song Larry the Logger Two-Step
Live version recorded at Norman's Rare Guitars
Download the TAB under the video



PAT SIMMONS LARRY THE LOGGER TWO-STEP TAB

GP5 + GP6 + PDF >>


e-----------0.----3---------------0-----------------------0-------------
B-----4.----------------------4---------1-------------4-----------------
G---0-----------------------0-----------------0-----0-------------------
D-----------3.---------/3-----------3.----------3-----------3-----------
A-----------------3-----------------------3-----------------------------
E-----3.----------------------3-----------------------3-----------------


e-----------------------------------------------0.----------------------
B---3/5---------5\4-----3.----1-----------4.----------------------------
G---------0-------------------------------------0.----------------------
D----/5-----5----\4-----3.---------/3-----3.----------------------------
A-----------------------------3-----------------------------------------
E-----------------------------------------------------------------------


e---3-----------5.--------0-----------------0---------------------------
B-------------------4-------------------4---------1---------------------
G-------------0-------0---------------0---------------------------------
D---------2-----------------------3-----------3-------------------------
A---3-----------------------3-------------------------------------------
E---------------3.----------------------3-------------------------------


20200304

SILENCE IS GOLDEN INSTRUMENTAL GUITAR TAB (JASON HILL)


The Tremeloes - Silence Is Golden instrumental guitar cover played by Jason Hill
Easy guitar instrumental with backing track
Download the TAB under the video



SILENCE IS GOLDEN TAB

GP5 + GP6 + PDF >>

Part 1

e-----------------------------------------------------------------------
B---------------------------------------9-------7-----------------------
G---------------------------------------------------9-------------------
D---6-------4---6/7-7~------6---7/9-9-----------------------------------
A-----------------------------------------------------------------------
E-----------------------------------------------------------------------


e-----------------------------------------------------------------------
B---9---7.--9-----------9---7-----------7-/-9~------10/12-\---7~--------
G---------------9-------------------------------------------------------
D-------------------------------9---------------------------------------
A-----------------------------------------------------------------------
E-----------------------------------------------------------------------


e-----------------------------------------------------------------------
B---------------------------------------9-------7-----------------------
G---------------------------------------------------9-------------------
D---6-------4---6/7-7~------6---7/9-9-----------------------------------
A-----------------------------------------------------------------------
E-----------------------------------------------------------------------