20190120

STILL LOVING YOU TAB (OZIELZINHO)


Scorpions - Still Loving You electric guitar cover played by Ozielzinho
It's arranged in 1 step down tuning with backing track
Download the TAB under the video



STILL LOVING YOU ELECTRIC GUITAR TAB

GP5 + GP6 + PDF >>

- 1 step down tuning -

Intro

d-----------------------------------------------------------------------
A-----------------------------------------------------------------------
F-----\5p3-/7~-----5p3-3~~~---------------------------------------------
C-----------------------------------------------------------------------
G-----------------------------------------------------------------------
D-----------------------------------------------------------------------


d-----------------------------------------------------------------------
A------------------------------------7/8/10~~~--------------------------
F------3-5-3-5-5/7~~~---------------------------------------------------
C-----------------------------------------------------------------------
G-----------------------------------------------------------------------
D-----------------------------------------------------------------------


Verse

d-----------------------------------------------------------------------
A-----------------------------------------------------------------------
F----/7~------------\---------7\5p3-/7~---------------------------------
C-----------------------------------------------------------------------
G-----------------------------------------------------------------------
D-----------------------------------------------------------------------


20190112

THE ENTERTAINER TAB (RICHARD SMITH)


Scott Joplin - The Entertainer fingerstyle guitar cover played by Richard Smith
It's arranged in Dropped D tuning and it's bloody hard to play ...
Download the TAB under the video



THE ENTERTAINER FINGERSTYLE TAB

GP5 + GP6 + PDF >>

- Dropped D tuning -
Part 1

e----------------------------------------------------0--1---------------
B----------------3--------3-------3---------------3---------------------
G---------------------------------4-------4----------0--1---------------
D---2----3----4-----4--4-------4----------5-----------------------------
A---4---------------------0---------------------------------------------
D-------------0----------------------5---------4------------------------


e---2-----0--2----------------------------------------------------------
B------3-----------2--5----3--------------------------------------------
G---2-----0--2-------------2--------------------------------------------
D------4-----------2--5----4--------------2--3--------------------------
A---0-----------0---------------0----2----4-----------------------------
D--------------------------0--------------------------------------------


e-----------------------------------------------------------------------
B------3--------3-------3-----------------0-----------------------------
G-----------------------4-------4------------2--------------------------
D---4-----4--4-------4----------5---------------------------------------
A---------------0-------------------------------------------------------
D---0----------------------5---------4----3-----------------------------


20190106

JUST WALK ON BY TAB (INSTRUMENTAL GUITAR TABS)


Leroy Van Dyke - Just Walk On By instrumental guitar cover by George Cress
Easy guitar instrumental with backing track
Download the TAB under the video



JUST WALK ON BY INSTRUMENTAL TAB

GP5 + GP6 + PDF >>

e-----------------------------------------------------------------------
B-----------------------------------------------------------------------
G-----------------------------------0----2----0----0--------------------
D-------------0---0-2---2-3----3-----------------------------0----------
A-------3---3-----------------------------------------------------------
E-------------------------------------------------------3---------------


e-----------------------------------------------------------------------
B-----------------------------------------------------------------------
G-----------------------------------------------------------------------
D------------5/7---5----------------------------------------------------
A---3~---------------7--\5-3~-------------------------------------------
E-----------------------------------------------------------------------


Part 1

e-----------------------------------------------------------------------
B-----------------------------------------------------------------------
G------------2-4---5~--------4.---2---4----2~---------------------------
D-----------------------------------------------------------------------
A-----------------------------------------------------------------------
E-----------------------------------------------------------------------


20181230

WHEN YOU SAY NOTHING AT ALL TAB (FINGERSTYLE)


You Say It Best When You Say Nothing At All fingerstyle cover by Michael Chapdelaine
Amazing guitar arrangement in Dropped D tuning with Capo on the 1st fret
It sounds like 432 Hz instead of 440 Hz
Download the TAB under the video



WHEN YOU SAY NOTHING AT ALL FINGERSTYLE TAB

GP5 + GP6 + PDF >>

- Capo on the 1st fret -

Intro

e-------------------0---------------------------------------------------
B----------------3--------------3-----------3---------------------------
G-------------2--------------6-----------6-----------6--6h7-------------
D--------0----------------7-----------7-----------7---------------------
A---0h2----------------0-----------------------0------------------------
D----------0-----------------------5------------------------------------
    x x  x x           x           x           x  


e---------------0-------------------------------------------------------
B-------------------------------3---------------3-----------------------
G-----------7---------------6---------------6---------------6-----------
D-------7---------------7---------------7---------------7---------------
A-------------------0-------------------------------0-----------0h2-----
D---0-------------------------------5-----------------------------------
    x               x               x               x           x x


Verse

e-------0h2-0h2-0h2-----2p0---------------------------------------------
B-----------3---------------3.--3---------------0h2-----2p0-------------
G-------2-------2-------2---2.--2-------2---2.----------------2.--2-----
D-----------------------------------------------2-------2---------------
A-------------------0-------------------------------0-------------------
D---0-------------------------------5-----------------------------------
    x               x               x               x


20181227

THE HYPNOPHONICS SCREAM TAB (WET SOUNDTRACK)


The Hypnophonics - Scream is one of the crazy WET Soundtracks
Powerful punk rock guitar playing in standard tuning
Download the TAB under the video



THE HYPNOPHONICS SCREAM TAB

GP5 + GP6 + PDF >>

Intro

e-----------------------------------------------------------------------
B-----------------------------------------------------------------------
G-----------------------------------------------------------------------
D-----------------------------------------------------------------------
A---------------1---2---x-1-1-x-----------------1---2---x-1-1-x---------
E---0---3-3-3-x-----------------3---0---3-3-3-x-----------------3-------


e-----------------------------------------------------------------------
B-----------------------------------------------------------------------
G-----------------------------------------------------------------------
D-----------------------------------------------------------------------
A---------------1---2---x-1-1-x-----------------1---2---x-1-1-x---------
E---0---3-3-3-x-----------------3---0---3-3-3-x-----------------3-------


e-----------------------------------------------------------------------
B-----------------------------------------------------------------------
G---------------------------------------------------------0---0-0-0-----
D---------------1---2---2-1-1-x-----------------1---2---x---------------
A---0---3-3-3-x-----------------3---0---3-3-3-x-------------------------
E-----------------------------------------------------------------------