20191012

GOO GOO DOLLS BETTER DAYS TAB (ACOUSTIC COVER)


Goo Goo Dolls - Better Days acoustic cover by Jamie Meyer and Regina Lund
It's played in standard tuning with a 12 string acoustic guitar
Download the TAB under the video



GOO GOO DOLLS BETTER DAYS ACOUSTIC TAB

GP5 + GP6 + PDF >>

Intro

e---10----------9-------------------------------------------------------
B---10--------------------------10--------------------------------------
G---9-------9---------------9-------------------------------------------
D---0-------0---------------0-------------------------------------------
A-----------------------------------------------------------------------
E-----------------------------------------------------------------------


e---10----------9-------------------------------------------------------
B---10----------10--------------10--------------------------------------
G---0---------------------------0---------------------------------------
D---0-------0---------------0-------------------------------------------
A---x-------------------------------------------------------------------
E---10------------------------------------------------------------------


e-----------------------------------------------------------------------
B---3-----------2-------------------------------------------------------
G---2-------2-------------------2---------------------------------------
D---2-------------------------------------------------------------------
A---0-------------------------------------------------------------------
E-----------------------------------------------------------------------


20191006

TOMMY EMMANUEL DIXIE MCGUIRE TAB (LIVE)


Tommy Emmanuel plays Dixie McGuire live at MSP Musique, St-Nicolas QC
There is a beautiful part between 3:32 and 4:03 and it's transcribed
Download this TAB under the video



TOMMY EMMANUEL DIXIE MCGUIRE TAB

GP5 + GP6 + PDF >>

(3:32 - 4:03)

e---------------------0-------------------------------------------------
B---5---------5-------4---------4-----------4---------------------------
G---6---------6-------------------------6---------x---------------------
D---------7-----------------7-----------7-----7-------------------------
A-----------------------------------------------------------------------
E---7-----------7-----7-----------7-------------------------------------


e---------4.----7---4---------------------------------------------------
B---------5.--------------7-------5-----4---5-----7---------------------
G---------4.--------------4-----------------------6---------------------
D---------6.----------6---6-------6-----------4-------------------------
A---------------------------4-------------------------------------------
E---0-----------0-----------------------4-------------------------------
    x           x     x     x     x     x     x


e---------4---------0-----------5-----4---------------------------------
B-------------7-----------7-----------------7---------------------------
G-------------------------6-----------------6---------------------------
D---------------------0---7-------7---------7---------------------------
A---------4-----------------0-------------------------------------------
E---6-----------6-----------------------0-----7-------------------------
    x     x     x     x     x     x     x     x


20190929

SHAKIN' ARROWS BLUE ARROW TAB


The Shakin' Arrows - Blue Arrow is a beautiful instrumental guitar song
The band is a dutch rock and roll group and this song is from the '70s
Download the TAB under the video



BLUE ARROW TAB

GP5 + GP6 + PDF >>

Part 1

e----9--------9--9-/12-------10.--9.--7---------------------------------
B---10-------10-10-/14-------12.-10.--9-------5-------------------------
G-----------------------------------------------------------------------
D-----------------------------------------------------------------------
A-----------------------------------------------------------------------
E-----------------------------------------------------------------------


e-----------------------------------------------------------------------
B---6-7-------7.-9-/12-------10.-7.-5-----------------------------------
G---6-7-------7.-9-/13-------11.-7.-6-----------------------------------
D-----------------------------------------------------------------------
A-----------------------------------------------------------------------
E-----------------------------------------------------------------------


e-----------------------------------------------------------------------
B---6-7-------7.-9-/12-------10.-7.-5-----------------------------------
G---6-7-------7.-9-/13-------11.-7.-6-----------6-----------------------
D-----------------------------------------------7-----------------------
A-----------------------------------------------------------------------
E-----------------------------------------------------------------------


20190923

JOE BONAMASSA I'LL PLAY THE BLUES FOR YOU SOLO TAB (LIVE)


Joe Bonamassa - I'll Play The Blues For You live version recorded at the Greek Theatre
There is a great guitar solo at 1:25 and it's transcribed
Download the TAB under the video



I'LL PLAY THE BLUES FOR YOU SOLO TAB

GP5 + GP6 + PDF >>

Solo 1  ( ~ 1:25)

e-----------------------------------------------------------------------
B------------------11~--------------------------------------------------
G-----------12--------------12-\----------------------------------------
D---10/12-----12--------------------------------------------------------
A-----------------------------------------------------------------------
E-----------------------------------------------------------------------


e-----------------------------------------------------------------------
B---13(15)-----13(15)-----13~-------11-13-13(15)---13(15)---(13)p11-----
G------------------------------------------------------------------12~--
D-----------------------------------------------------------------------
A-----------------------------------------------------------------------
E-----------------------------------------------------------------------


e-----------------------------------------------------------------------
B---11-13-(15)----------------------------------------------------------
G-----------------------------------------------------------------------
D-----------------------------------------------------------------------
A-----------------------------------------------------------------------
E-----------------------------------------------------------------------


20190915

ACOUSTICIAN FADE TO BLACK SOLO TAB (JUHA JARVINEN)


Metallica - Fade To Black acoustic guitar solo cover played by Acoustician
It's in standard tuning with a rhythm guitar backing track
Download the TAB under the video



FADE TO BLACK ACOUSTIC SOLO TAB

GP5 + GP6 + PDF >>


e-----------------------------------------------------------------------
B-----------------------------------------------------------------------
G-----------5-7-7/9-x-9~-----9~-----9~---\-7p5-7~-----------------------
D------/7-7-------------------------------------------------------------
A-----------------------------------------------------------------------
E-----------------------------------------------------------------------


e-----------------------------------------------------------------------
B-----5-5h6--5-----5h6--5-----5h6--5-----6/8~---------------------------
G---7-----------5----------5----------5---------------------------------
D-----------------------------------------------------------------------
A-----------------------------------------------------------------------
E-----------------------------------------------------------------------


e-------5---------------------------------------------------------------
B---6-8----8--6-6h8--6--5-5h6--5----5-----------------------------------
G---------------------------------7----7--5-----------------------------
D-------------------------------------------5---7-7~--------------------
A-----------------------------------------------------------------------
E-----------------------------------------------------------------------