20210920

BILLY STRINGS - DON'T LET YOUR DEAL GO DOWN TAB


Billy Strings plays Don't Let Your Deal Go Down by Doc Watson (Billy's Insta version)
It's in standard tuning with CAPO on the 3rd fret
Download the TAB under the video



DON'T LET YOUR DEAL GO DOWN TAB

PDF + GUITAR PRO >>

Intro

e-------------------------------------------5-5-----3---3-3-3-----------
B---------------------------------------2-2-2-2-x-x-2---2-2-2-----------
G---------------------------------------2-2-2-2-x-x-2---2-2-2-----------
D-----------0---1---2-------------------2---2---x-x-2---2---2-----------
A-------3---------------3---2---1---0-----------------------------------
E-----------------------------------------------------------------------


e---0-1-2-0-2-5-2-----------x---x-x-0-2-3-0-1-0-------------------------
B-----------------3-0---3---3---3-3-------------3-1-0-------------------
G---------------------2-----2---2-2-------------------2-0---------------
D---------------------------0---0-------------------------2-0---------0-
A-------------------------------------------------------------2---0-2---
E---------------------------------------------------------------3-------


e-----------------------0---------------5-5-5-5-----3---3-3-3-3-0-0-----
B-----------------0-1---1---------------2-2-2-2-x-x-2---2-2-2-2-0-0-----
G-------------0-2-------0---------------2-2-2-2-x-x-2---2-2-2-2-0-------
D-------0-1-2-----------2---------------2---2---x-x-2---2---2-----------
A---3-------------------3---2---1---0-----------------------------------
E-----------------------------------------------------------------------

20210913

IZ - SOMEWHERE OVER THE RAINBOW - WHAT A WONDERFUL WORLD TAB (CHORDS)


IZ plays Somewhere Over the Rainbow and What a Wonderful World back in 1993
You can play it on guitar in standard tuning with Capo on the 5th fret
Download the TAB under the video



OVER THE RAINBOW - WONDERFUL WORLD GUITAR CHORDS

PDF + GUITAR PRO >>

- CAPO on the 5th fret -

e-------3-3---3-3-3---2-2-2---2-2-2---0-0-0---0-0-0---0-0-0---0-0-0-----
B-------0-0---0-0-0---3-3-3---3-3-3---0-0-0---0-0-0---1-1-1---1-1-1-----
G-------0-0-----0-0-----4-4-----4-4-----0-0-----0-0-----0-0-----0-0-----
D---0-------x-------0-------x-------2-------x-------2-------x-----------
A-----------------------------------------------------------------------
E-----------------------------------------------------------------------


e-----3-3-3---3-3-3---2-2-2---2-2-2---0-0-0---0-0-0---0-0-0---0-0-0-----
B-----0-0-0---0-0-0---3-3-3---3-3-3---0-0-0---0-0-0---3-3-3---3-3-3-----
G-------0-0-----0-0-----2-2-----2-2-----0-0-----0-0-----0-0-----0-0-----
D---0-------x-------0-------x-------2-------x-------2-------x-----------
A-----------------------------------------------------------------------
E-----------------------------------------------------------------------


e-----0-0-0---0-0-0---0-0-0---0-0-0-------------------------------------
B-----1-1-1---1-1-1---1-1-1---1-1-1-------------------------------------
G-------0-0-----0-0-----0-0-----0-0-------------------------------------
D---2-------x-------2-------x-------------------------------------------
A-----------------------------------------------------------------------
E-----------------------------------------------------------------------

20210905

IMAGINE FINGERSTYLE TAB (OPEN G TUNING)


John Lennon - Imagine acoustic fingerstyle guitar cover by Jim "Kimo" West
It's arranged in Open G tuning and no Capo is used
Download the TAB under the video



IMAGINE FINGERSTYLE TAB

PDF + GUITAR PRO >>


D----------0---0------------------------0h2p0---------------------------
B---------0--0-----0------1------------1-----1--------------------------
G--------0---------------0------------0---------------------------------
D-------0------4--------2-----------------------------------------------
G---0------------------0------------------------------------------------
D-----------------------------------------------------------------------


D---0---0---0---4------5---------9---7~---------------------------------
B---------0-----------5-------------------------------------------------
G--------------------5-------5/7-----5~---------------------------------
D-----------4-------0---------------------------------------------------
G---0-------------------------------------------------------------------
D-----------------------------------------------------------------------


D---------0---0---------------------------------------------------------
B--------0--0-------7-7-5-----------------------------------------------
G-----------------0-------5-------------0-------------------------------
D-------------4-------------5---5.-2h3h4--------------------------------
G---0-----------------0-------------------------------------------------
D-----------------------------------------------------------------------

20210826

OVER THE RAINBOW FINGERSTYLE TAB


Harold Arlen - Over the Rainbow fingerstyle classical guitar cover by Michael Lucarelli
It's arranged in standard tuning and no Capo is used
Download the TAB under the video



SOMEWHERE OVER THE RAINBOW FINGERSTYLE TAB

PDF + GUITAR PRO >>

Part 1

e-------------------8~--------------7----------------7-------8~---------
B---1-----------------------5---------------8---10---8------------------
G-----------0-----------5-------5-------7------------7------------------
D-------2---------------------------------------------------------------
A---3---------------0---------------7----------------7------------------
E---------------7-------------------------------------------------------


e----------------------5~-----------3-----------------------------------
B---1-----------------4---------------------1---0-----------------------
G-----------2--------5------------------0-----------3~----------3-------
D-------3-------3---4---------------------------------------2-----------
A-----------------------------------3-------------------3---------------
E---1-------------------------------------------------------------------


e-------------------3-------1-------0---------------0-------1-----------
B---------------1---1-------1---------------1---3---2-------2-----------
G---2-------2-------1---1---1-----------0-----------0---0---0-----------
D-------3---------------------------------------------------------------
A-----------------------------------3-----------2---0-------------------
E---1---------------1---------------------------------------------------

20210814

LAST OF THE MOHICANS TAB (GEOFF REEVES)


Last of the Mohicans main theme instrumental guitar cover by Geoff Reeves
The original song is called The Gael by Dougie MacLean
Download the TAB under the video



LAST OF THE MOHICANS TAB

PDF + GUITAR PRO >>


e-----------------------------------------------------------------------
B-----------------------------------------------------------------------
G---7---10-7---------7---10-7---------5---9-5---------5---9-5-----------
D--------------7----------------7---------------5---------------5-------
A-----------------------------------------------------------------------
E-----------------------------------------------------------------------


e-----------------------------------------------------------------------
B--------10-------------------------------------------------------------
G---10-----10----------9---12-9----------7---10-7---------7---10-7------
D---------------10----------------10----------------7----------------7--
A-----------------------------------------------------------------------
E-----------------------------------------------------------------------


e-----------------------------------------------------------------------
B-----------------------------------------------------------------------
G----------------------------------------------------------0~-----------
D---/3---/3---/3---3----2---0------------------0---3---2----------------
A-------------------------------0~---------0----------------------------
E-----------------------------------------------------------------------