20200919

LENNART CLERWALL ADAGIO TAB (LEAD GUITAR)


Lennart Clerwall and Friends - Adagio guitar cover played by Eugene Mago
Vintage instrumental guitar song played with a Fender Stratocaster
Download the TAB under the video



LENNART CLERWALL ADAGIO TAB

PDF >>

Intro

e---------------12------------------------------------------------------
B------------12----12-----------7-8-7-------7h8p7h8p7h8p7h8p7-----------
G------11-12----------12----8-9-------9-8-9-------------------9---------
D---14-------------------14---------------------------------------------
A-----------------------------------------------------------------------
E-----------------------------------------------------------------------


Part 1

e---7~-------7----------------------------------------------------------
B--------------------10-----8-7-----------------------------------------
G---------------------------------9---9~-----------\8---8~--------------
D-----------------------------------------------------------------------
A-----------------------------------------------------------------------
E-----------------------------------------------------------------------


e---8-------8-------7---------------------------------------------------
B---7---------------------10-8---7---7~------------8\7------------------
G---8--------------------------------------------------9----------------
D-----------------------------------------------------------------------
A-----------------------------------------------------------------------
E-----------------------------------------------------------------------

20200914

ZAKK WYLDE FOREVER DOWN SOLO TAB (GAKU)


Black Label Society / Zakk Wylde - Forever Down guitar cover by Gaku
There is a killer guitar solo between 2:28 and 3:01
Download the TAB under the video



FOREVER DOWN SOLO TAB

PDF >>

 - 1 step down tuning -

Solo

d--------12------------12------------12------------12-------------------
A---12h15--15p12--12h15--15p12--12h15--15p12--12h15--15p12--------------
F---------------14------------14------------14------------14------------
C-----------------------------------------------------------------------
G-----------------------------------------------------------------------
D-----------------------------------------------------------------------


d--------12------------12------------12------------12-------------------
A---12h15--15p12--12h15--15p12--12h15--15p12--12h15--15p12--------------
F---------------14------------14------------14------------14------------
C-----------------------------------------------------------------------
G-----------------------------------------------------------------------
D-----------------------------------------------------------------------


d--------14------------14------------14------------14-------------------
A---14h17--17p14--14h17--17p14--14h17--17p14--14h17--17p14--------------
F---------------16------------16------------16------------16------------
C-----------------------------------------------------------------------
G-----------------------------------------------------------------------
D-----------------------------------------------------------------------

20200907

STUART MCCALLUM SALTBURN TAB


Stuart McCallum - Saltburn is a very nice relaxing acoustic guitar song
The A-D and G strings are tuned up to a B-E and A note (2 frets higher)
Download the TAB under the video



SALTBURN TAB

PDF + GUITAR PRO >>


Special tuning: EBEABe


Part 1

e---------0-----7~----------0-----------------0-----9--\7---4\2-0-------
B---------------------------------0---------0---------------------------
A-------------0---------------------------0-----------------------------
E---4-------4---------------------------4-------------------------------
B-----------------------------------------------------------------------
E---0-------------------------------0-----------------------------------


e-------------0--------------------------0------------------------0-----
B---------------0-----------0--------------0---h2-----2p0---------------
A-----------------------------0--------------0------------0-------------
E-------0h2/4-------2p0-------------------------------------0h2/4-------
B---2-------------------0h2-----2p0-------------------------------------
E-----------------------------------h5----------------------------------


e---------0-----7~----------0-----------------0-----9--\7---4\2-0-------
B---------------------------------0---------0---------------------------
A-------------0---------------------------0-----------------------------
E-----------4---------------------------4-------------------------------
B-----------------------------------------------------------------------
E---0-------------------------------0-----------------------------------

20200827

NOVEMBER RAIN ACOUSTIC TAB (GARETH RHODES)


Guns N Roses - November Rain acoustic cover played by Gareth Rhodes
It's a good fingerpicking arrangement in standard tuning
Download the TAB under the video



NOVEMBER RAIN ACOUSTIC FINGERPICKING TAB

PDF + GUITAR PRO >>

Intro

e-----------------------------------------------------------------------
B-------5-----5---------5-----5---------5-----5---------5-----5---------
G-----5-----5-----5---5-----5-----5---5-----5-----5---5-----5-----0-----
D---3-----3-----3---3-----3-----3---0-----0-----0---0-----0-----0-------
A-----------------------------------------------------------------------
E-----------------------------------------------------------------------


e-------3-------3---1-------1-------0-------0-------------0-------------
B-----------1-----1-1-----1-----1---1-----1-----1---------------1-------
G---------0---0-----0---0-----0---0-0---0-----0---0-----0-----0---0-----
D-----2-----------------------------2---------------3-------2-----------
A---3-------------------------------------------------------------------
E-----------------------------------------------------------------------


e-----------------------------------------------------------------------
B-------5-----5---------5-----5---------5-----5---------5-----5---------
G-----5-----5-----5---5-----5-----5---5-----5-----5---5-----5-----0-----
D---3-----3-----3---3-----3-----3---0-----0-----0---0-----0-----0-------
A-----------------------------------------------------------------------
E-----------------------------------------------------------------------

20200820

PAIGE ANDERSON & THE FEARLESS KIN WILD RABBIT TAB


Paige Anderson & The Fearless Kin play Wild Rabbit in Grass Valley CA
There is a cool bluegrass guitar solo around 0:53 (Capo on the 3rd fret)
Download the TAB under the video



WILD RABBIT SOLO TAB

PDF + GUITAR PRO >>

Solo

e-----------------------------------------------------------------------
B-------------0---0-------3---------5---3---------0---------------------
G---0-------0---2---2/4-4-----4-------------4\2-0-----------------------
D-------0-2---------------------0---------------------------------------
A-----------------------------------------------------------------------
E-----------------------------------------------------------------------


e-----------------------------------------------------------------------
B---------0-----------0-------------------------------------------------
G-------0-----0-----------0---0---0-------------------------------------
D---2-----------2--/5-------5---0---------------------------------------
A-----------------------------------------------------------------------
E-----------------------------------------------------------------------


e-----------------------------------------------------------------------
B-------------1-------------------------------------1---------0---0-----
G-----------0-----0---0---0---0---0-------2p0-------0h2---2-----0-------
D-------0h2-----2---2---0---------------2-----2---------2---------------
A---3-----------------------3---2---0-----------0-----------------------
E-----------------------------------------------------------------------