20220619

SAMBA PA TI FINGERSTYLE TAB


Carlos Santana - Samba Pa Ti acoustic fingerstyle guitar cover played by Paolo Mari
It's arranged in standard tuning and it brilliantly covers the whole song
Download the TAB under the video



SAMBA PA TI FINGERSTYLE TAB

PDF + GUITAR PRO >>

Samba Pa Ti fingerstyle guitar tab


20220613

MOVING ON AND GETTING OVER TAB


John Mayer - Moving On and Getting Over electric guitar cover by Darryl Syms
It's in standard tuning and the video covers the main parts of the song
Download the TAB under the video



JOHN MAYER - MOVING ON AND GETTING OVER TAB

PDF + GUITAR PRO >>



20220604

BILLY STRINGS - TENNESSEE STUD TAB (FRETBOARD JOURNAL)


Billy Strings plays Tennessee Stud live at the Fretboard Journal
It's in Standard tuning with CAPO on the 3rd fret
Download the TAB under the video



BILLY STRINGS - TENNESSEE STUD TAB

PDF + GUITAR PRO >>

Intro

e-------------------------------------------------------2-2.--2---------
B---------------------------------3---------------------3-3.--3---------
G---2-0-------------------x-x-----2---2-0---------------2-2.--2---------
D-------4-2-0-------0---0-x-3/4-----------4-2-0-------0-------0---------
A---------------2p0---2---------------------------2p0-------------------
E-----------------------------------------------------------------------


e-------------------------------------------------------2-2.--2---------
B---------------------------------3---------------------3-3.--3---------
G---2-0-------------------x-x-----2---2-0---------------2-2.--2---------
D-------4-2-0-------0---0-x-3/4-----------4-2-0-------0-------0---------
A---------------2p0---2---------------------------2p0-------------------
E-----------------------------------------------------------------------


e-------2-x-----0-x-----2.--2-----x-----2-x-----0-x-----0-0-------------
B-------3-x---1-1-x---3-3.--3-----x-----3-x---1-1-x-----3-3-------------
G---2---2-----0-0-----2-2.--2-----------2-----0-0-------2-2-------------
D---------------2---0-------0-------0-----------2---0-------------------
A-----------3-------------------------------3-------------------0-2-----
E-----------------------------------------------------------0-2---------

20220528

LOVE THE WAY YOU LIE FINGERSTYLE TAB


Eminem ft. Rihanna - Love The Way You Lie fingerstyle guitar cover by JG Music
It's arranged in standard tuning with Capo on the 3rd fret
Download the TAB under the video



LOVE THE WAY YOU LIE FINGERSTYLE TAB

PDF + GUITAR PRO >>

e-----------------5/7~-------------5/7~---------------------------------
B---1/3---5---3-------------5---3----------5--\3-3\1--------------------
G------------------------------------------------------------0----------
D--------------------------------------------------------2-------2------
A----------------------------------------------------3------------------
E-----------------0-----------------------------------------------------


e-----------------------------------------------------------------------
B---0h1---1-------1------p0-0---------0h1-0---0-------------------------
G-------------0-------------------0---------------0---2-----------------
D-----------------------------------------------------------------------
A-----------------------------------------------------------------------
E---------------------3---------------3---------------2-----------------


e-----------------5/7~-------------5/7~---------------------------------
B---1/3---5---3-------------5---3----------5--\3-3\1--------------------
G------------------------------------------------------------0----------
D--------------------------------------------------------2-------2------
A----------------------------------------------------3------------------
E-----------------0-----------------------------------------------------

20220520

DAVID GRIER - RED HAIRED BOY TAB (LIVE)


David Grier - Red Haired Boy live at the Midwest Banjo Camp's Faculty Concert 2011
It's in Standard tuning with Capo on the 2nd fret
Download the TAB under the video



DAVID GRIER - RED HAIRED BOY TAB

PDF + GUITAR PRO >>

- Capo on the 2nd -

e-----------------------------------------------------------------------
B---------------------------0-1-3---3---------3-----3-----3-------------
G---0---------0-----0---0h2---------0-------0---------0---------0-------
D---------2p0-----0-----------------2-----2-------2-----2-----2---------
A-----------------------------------3---3-------3-----------3-----------
E-------3-------3-------------------------------------------------------


e---------------------------------0-------------------------------------
B---3-------------0h1---0---------------0---------1p0-------------------
G---0-----0-----0-----0-----0h2-----------------2-----2-0---------------
D---0---------0-------------3-----------------3-----------3-------------
A---x-----------------------3---3---3-------3---------------------------
E---3---3---3-----------------------------------------------------------


e-----------------------------------------------------0-2-3-------------
B-------------------0-1-3---3---------3-----3-----3---------------------
G-----0-----0---0h2---------0-------0-----0---0-----0-------------------
D---0-----0-----------------2-----2-------------2-----------------------
A---------------------------3---3-------3-------------------------------
E-------3---------------------------------------------------------------