20210216

BURNS ERNST A FOOL SUCH AS I TAB


Elvis Presley - A Fool Such As I instrumental guitar cover played by Burns Ernst
Vintage guitar instrumental with backing track
Download the TAB under the video



A FOOL SUCH AS I TAB

PDF + GUITAR PRO >>

Intro

e-----------------------------------------------------------------------
B-------7.---8-/-10------10-9--/10-10.---12-------12-10.---8.-----------
G-----7------9-/-11------11-10-/11-11.---12-------12-11.---9.-----------
D-----------------------------------------------------------------------
A-----------------------------------------------------------------------
E-----------------------------------------------------------------------


e------------10-------------9-----------10------10----------------------
B--------------------------------------10----------10-------------------
G---7-/-11------------7/9-------------11----------------11--------------
D------------------------------------12----------------------12---------
A-----------------------------------------------------------------------
E-----------------------------------------------------------------------


Verse

e-----------------------------------------------------------------------
B------------------5-5h7--------------5--5------------------------------
G-----------7--------------6--------6------7--4---4-----0--4---2~-------
D---4---7---------------------------------------------0-----------------
A-----------------------------------------------------------------------
E-----------------------------------------------------------------------

20210206

BILLY STRINGS - DUST IN A BAGGIE TAB (INTRO SOLO)


Billy Strings plays Dust In A Baggie live "in a quiet room at a loud party"
It's in standard tuning and the intro solo is transcribed
Download the TAB under the video



DUST IN A BAGGIE TAB

PDF + GUITAR PRO >>

Intro

e-------------------------------------3-----3---------------------------
B-------------------------------------3-----3-3-------------------------
G---0-----------------0-----------0---0-----0-0-------------------------
D---0-----------------0-----0-2p0-----0-------0-------------------------
A---x-----------------x---2---------------------------------------------
E---3-0---1---2---3---3-------------------------------------------------


e-----------------------3-----3-3---------------------------------------
B-----------------------3-----3-3---------------------------------------
G-------0-3---0-0-------0-----0-0---------------------------------------
D-----2-----2-----0-0---0-------0---------------------------------------
A---3-------------------------------------------------------------------
E-----------------------------------------------------------------------


e-------3-----3---3---------------------2-----2-------------------------
B-------3-----3-3-3---0---0---0---0-----3-----3-3-3---------------------
G-------0-----0-0-0---------------------2-----2-2-----------------------
D---0---0-------0-------------------0-----------0-----------------------
A---x-------------------2---3---4---------------------------------------
E---3---------------3---------------------------------------------------

20210129

LOREENA MCKENNITT - SKELLIG FINGERSTYLE TAB (GEORGE SKAROGIANNIS)


Loreena McKennitt - Skellig fingerstyle guitar cover by George Skarogiannis
It's arranged in DADGAD tuning with Capo on the 3rd fret
Download the TAB under the video



LOREENA MCKENNITT SKELLIG FINGERSTYLE TAB

GUITAR PRO + PDF >>

Intro

d-----------------------------------------------------------------------
A---0-----0-------0-0-----2p0---------0-----0h2-----0-------0-----------
G-------2-----2---------0-----0-----------0-------0-------2-----2-------
D-----2---------2-----0-----------0-----3---------0-----2---------2-----
A---0-------------------------------------------------0-----------------
D-------------------5-----------------3---------5-----------------------


d-----------------------------------------------------------------------
A---3-----3---------0-----2p0---------0-----0-----0-------------0-------
G---2---2-----2---------0-----0-----------0---0-------------2-----------
D-----2---------2-----0-----------0-----3-------0-----0h2---------2-----
A---0-------------------------------------------------0-----------------
D-------------------5-----------------3-------5-------------------------


d-----------------------------------------------------------------------
A---0-------0---2---3-----2p0------------0---0---2p0-----0---------0----
G---2-----0-------0-----2------2p0-----------0-------0---------2--------
D-------2-----0-------2--------------2---------0-------------2-------2--
A---0---------------0----------------0-------------------0--------------
D-----------5--------------------------------5--------------------------

20210121

FRANCIS GOYA - MILLION SCARLET ROSES TAB


Million Scarlet Roses instrumental acoustic guitar song played by Francis Goya
2 acoustic guitar lines (rhythm + solo) with Capo on the 1st fret
Download the TAB under the video



MILLION SCARLET ROSES TAB

PDF + GUITAR PRO >>

- CAPO on the 1st -

Intro

e-----------------------------------------------------------------------
B---------1-------1-------1-------1-------1-------1-------1-------1-----
G-------2-------2-------2-------2-------2-------2-------2-------2-------
D-----------0h2-------------0h2-------------0h2-------------0h2---------
A---0---------------0---------------0---------------0-------------------
E-----------------------------------------------------------------------


e-----------------------------------------------------------------------
B---------1-------1-------1-------1-------1-------1-------1-------1-----
G-------2-------2-------2-------2-------2-------2-------2-------2-------
D-----------0h2-------------0h2-------------0h2-------------0h2---------
A---0---------------0---------------0---------------0-------------------
E-----------------------------------------------------------------------


Verse

e-----------------------------------------------------------------------
B---------1-------1-------1-------1-------5---3---3---1---1---3---3-----
G-------2-------2-------2-------2-------5-------4-------2-------4-------
D-----------0h2-------------0h2-----------------------------------------
A---0---------------0---------------0-------0-------0-------0-----------
E-----------------------------------------------------------------------

20210110

RODRIGO RODRIGUEZ - THE PRAYER CLASSICAL GUITAR TAB (LIVE)


Rodrigo Rodriguez plays The Prayer live in Prague (Czech Republic) 2007
Amazing classical guitar song in DGDGBe (Open G6) tuning
Download the TAB under the video



RODRIGO RODRIGUEZ - THE PRAYER TAB

PDF + GUITAR PRO >>

Part 1

e-------5---------------3-------------7~--7---------------5~------------
B---3-------------------0---------------------------------5-------------
G---------------0---2-----------------------------5---7-----------------
D-----------0---------------------------------5-------------------------
G-------0---------------------------------5-----------------------------
D-----------------------------------------------------------------------


e---3---3-------2-------------------------------------------------------
B-------------------1---5-------3\--1-----------1---0-------------------
G---------------2---------------------------2-------0-------------------
D-----------0---------------4-----------0-------------------------------
G-----------------------5-----------0-----------------------------------
D-------0---------------------------------------------------------------


e-------5---------------3-------------7~--7---------------5~------------
B---3-------------------0---------------------------------5-------------
G---------------0---2-----------------------------5---7-----------------
D-----------0---------------------------------5-------------------------
G-------0---------------------------------5-----------------------------
D-----------------------------------------------------------------------