20180519

JIMMIE VAUGHAN THE PLEASURE'S ALL MINE SOLO TAB


Jimmie Vaughan and Bonnie Raitt play The Pleasure's All Mine live in Austin
Jimmie's solo starts about 1:40 and he has a Capo on the 1st fret
Download the TAB under the video



THE PLEASURE'S ALL MINE SOLO TAB

GP5 + GP6 + PDF >>

 - CAPO on the 1st -

e---/10-10-10-10--/10-10-10--10-10-10--10-10-10--10-10-10---------------
B---/12-12-12-12--/12-12-12--12-12-12--12-12-12--12-12-12---------------
G-----------------------------------------------------------------------
D-----------------------------------------------------------------------
A-----------------------------------------------------------------------
E-----------------------------------------------------------------------


e---/10-10-10---9--9--9--7-7-7--7-7-7--/10-10-10--10-10-10--10----------
B---/12-12-12--10-10-10--8-8-8--8-8-8--/12-12-12--12-12-12--12----------
G-----------------------------------------------------------------------
D-----------------------------------------------------------------------
A-----------------------------------------------------------------------
E-----------------------------------------------------------------------


e-------10-12-10--------------------------------------------------------
B---/12----------12-10-8~--8-10.----8--8\-------------------------------
G--------------------------x------9----9\-------------------------------
D-----------------------------------------------------------------------
A-----------------------------------------------------------------------
E-----------------------------------------------------------------------


20180513

LARRY JON WILSON OHOOPEE RIVER BOTTOMLAND TAB


Larry Jon Wilson plays Ohoopee River Bottomland with an acoustic guitar
The main groove is about 5:50 in this video
Download the TAB under the video



OHOOPEE RIVER BOTTOMLAND ACOUSTIC TAB

GP5 + GP6 + PDF >>

Intro

    E  
e--------0-----0-----0-----0---0-0--------------------------------------
B--------x---x-x-x-x-x-x-x-x-x-x-x-x------------------------------------
G-------/9---x-7-x-x-6-x-x-4-x-1-1-x------------------------------------
D--------x---x-x-x-x-x-x-x-x-x-x-x-x------------------------------------
A------/11---x-9-x-x-7-x-x-5-x-2-2-x------------------------------------
E---0-------------------------------------------------------------------


     D
e---/10---10-x-8-8-x-7-x-5-x-3-x-2-2-2----------------------------------
B----x-----x-x-x-x-x-x-x-x-x-x-x-3-3-3----------------------------------
G---/11---11-x-9-9-x-7-x-5-x-4-x-2-2-2----------------------------------
D----0-----------------------------0------------------------------------
A-----------------------------------------------------------------------
E-----------------------------------------------------------------------


    A
e-------0-----0---0-0-----0---0-0---------------------------------------
B-------2-x-x-3-x-5-5-x-x-3---3-3\2-------------------------------------
G-------x-x-x-x-x-x-x-x-x-x---x-x-x-------------------------------------
D-------2-x-x-4-x-5-5-x-x-4---4-4-x-------------------------------------
A---0-----------------------0-------------------------------------------
E-----------------------------------------------------------------------


20180507

THE BEATLES IF I FELL INSTRUMENTAL GUITAR TAB


The Beatles - If I Fell instrumental guitar cover played by Eric
Easy guitar instrumental with backing track
Download the TAB under the video



THE BEATLES IF I FELL INSTRUMENTAL TAB

GP5 + GP6 + PDF >>

Part 1

e-----------------------------------------------------------------------
B-----------------------------------------------------------------------
G-----------1---------------1---------------6~----------5-3-------------
D-----1-3-4---1-3-4---1-3-4---1-3-4---1-----------------------3---------
A---------------------------------------4-------------------------------
E-----------------------------------------------------------------------


e-----------------------------------------------------------------------
B-----------------------------------------------------------------------
G-----------1---------------1-----------------------0---2~--------------
D-----1-3-4---1-3-4---1-3-4---1-3-4-----0-2~------4---------------------
A-----------------------------------------------------------------------
E-----------------------------------------------------------------------


Part 2

e-----------------------------------------------------------------------
B-----2-3~--------------5~--------------2~------------------------------
G---4-------------------------------------------------------------------
D-----------------------------------------------------------------------
A-----------------------------------------------------------------------
E-----------------------------------------------------------------------


20180429

JOHN MAYER RED HOUSE INTRO SOLO TAB


John Mayer plays Red House intro solo with a perfect 60's Fender Stratocaster
The video is out of synch but the sound is awesome (half-step down tuning)
Download the TAB under the video



RED HOUSE INTRO SOLO TAB

GP5 + GP6 + PDF >>

eb--------11~-------11~----------------11~-------11~--------------------
Bb-----------------------10~--------------------------10~---------------
Gb--/11~-------11~---------------/11~-------11~------------11-----------
Db----------------------------------------------------------------------
Ab----------------------------------------------------------------------
Eb----------------------------------------------------------------------


eb--------10~-------10~----------------10~-------10~-------10---/11--\--
Bb-----------------------9~---------------------------------------------
Gb--/10~-------10~---------------/10~-------10~-------10~-------/11--\--
Db----------------------------------------------------------------------
Ab----------------------------------------------------------------------
Eb----------------------------------------------------------------------


eb----------------------------------------------------------------------
Bb---10(12)~-----------10(12)~-----------10(12)~------------------------
Gb----------------------------------------------------------------------
Db----------------------------------------------------------------------
Ab----------------------------------------------------------------------
Eb----------------------------------------------------------------------


20180421

PLAYING FOR CHANGE COTTON FIELDS ACOUSTIC GUITAR SOLO TAB

Amazing musicians from all over the world play Cotton Fields by CCR
There is a nice acoustic solo played by Vinnie Caggiano around 1:38
Download this solo tab under the video



COTTON FIELDS ACOUSTIC SOLO TAB

GP5 + GP6 + PDF >>

(~ 1:40)

e-----------8p7p5-7--5--------------------------------------------------
B----------------------7--5---------------------------------------------
G--------------------------6p5-\4---------------------------------------
D---------------------------------7--4-7--4-----------------------------
A-----------------------------------------------------------------------
E-----------------------------------------------------------------------


e--------------------------------5-8p7p5----5---------------------------
B---------------------------5-7----------7------------------------------
G-----------4-4h5p4-4--5/6----------------------------------------------
D------4-7---------7----------------------------------------------------
A---5-------------------------------------------------------------------
E-----------------------------------------------------------------------


e---7--x--8--x--9--x--10-10/12-------11--x--8/9-------------------------
B-----------------------------------------------10-10~------------------
G-----------------------------------------------------------------------
D-----------------------------------------------------------------------
A-----------------------------------------------------------------------
E-----------------------------------------------------------------------