20210509

CAN'T HELP FALLING IN LOVE FINGERSTYLE TAB


Can't Help Falling in Love easy fingerstyle guitar cover played by Michael Lucarelli
It's arranged in standard tuning and no Capo is used
Download the TAB under the video



CAN'T HELP FALLING IN LOVE FINGERSTYLE TAB

PDF + GUITAR PRO >>


e-----------------------------------------------------------------------
B---------1-----------1-------------------------------------------------
G-------0---0-------0---0-----------------------------------------------
D-----2-------2---2-------2---------------------------------------------
A---3-----------3-------------------------------------------------------
E-----------------------------------------------------------------------


e---------------3---------------------------------0---------------------
B---1-----1-----------------1-----1-------------3-----------------------
G-------0---0---------0---------2---2-------2---------------------------
D-----2-------2-----2---2-----2-------2---2---2-------------------------
A---3-------------2-------2-0-----------0-------------------------------
E---------------0-------------------------------------------------------


e---1-----------0-------------------------------------------------------
B---------------------1-----3-------------------------------------------
G---------2---------0---0---------0-----------0---0---------------------
D-------3---3-----2-------2-----0---0-------0---0-----------------------
A-----3---------3-------------2-------2---2-----------------------------
E---1---------1-------------3-----------3-------------------------------

20210429

ELLERT NORDMARK - MUCKARTWIST TAB


Ellert Nordmark plays Muckartwist in Roger Paulsson's studio
Easy guitar instrumental with backing track
Download the TAB under the video



ELLERT NORDMARK MUCKARTWIST TAB

PDF + GUITAR PRO >>

Intro

e-----------------------------------------------------------------------
B-----------------------------------------------------------------------
G-----------------------------------------------------------------------
D---3-3-0-0-------------------------------------------------------------
A-----------3-3-0-0-----------------------------------------------------
E-------------------1.--1.--1-------------------------------------------


Part 1

e-----------------------------------------------------------------------
B---------------------------------------1-1-------------3-3---1---------
G-----------------------------------2---------3-2---3-----------3-------
D---------0-3-0---0-3---1-1---0-----------------------------------------
A---1---1-------1---------------3---------------------------------------
E-----------------------------------------------------------------------


e-----------------------------------------------------------------------
B---------------------------------------1-1-----------------------------
G-----------------------------------2---------3-2---3---3-3~~~----------
D---------0-3-0---0-3---1-1---0-----------------------------------------
A---1---1-------1---------------3---------------------------------------
E-----------------------------------------------------------------------

20210416

QUIZAS QUIZAS QUIZAS CLASSICAL GUITAR TAB (THU LE)


Osvaldo Farrés - Quizas Quizas Quizas classical guitar cover played by Thu Le
It's arranged in Dropped D tuning and no capo is used
Download the TAB under the video



QUIZAS QUIZAS QUIZAS CLASSICAL GUITAR TAB

PDF + GUITAR PRO >>

Intro

e-------10~--------------------------------8-\--------------------------
B------10----10---------------------------------------------------------
G-----10----------10---9h10p9-7---9---10--------------------------------
D-----0-----------------------------------------------------------------
A----0------------------------------------------------------------------
D---0-------------------------------------------------------------------


e---6-------------------------------------------------------------------
B-------8---5-------------------8-\-------------------------------------
G-------0-------7---6---------------------------------------------------
D-----------------------8---7-------------------------------------------
A-----------------------------------------------------------------------
D---5-------------------------------------------------------------------


e---1-------1---3---0-------0---1-------------------<12>----------------
B-------3---------------2-----------3-----------------------------------
G-----------1---------------0---------------2---------------------------
D-------3---------------2-------------------3---------------------------
A---1---------------0---------------------------------------------------
D-----------------------------------0-----------------------------------

20210409

JACOB GUREVITSCH - LOVERS IN PARIS TAB


Jacob Gurevitsch plays Lovers in Paris - beautiful romantic spanish guitar song
Both acoustic guitar lines are transcribed
Download the TAB under the video



LOVERS IN PARIS TAB

PDF + GUITAR PRO >>

Intro

e---------3---------------3---------------3---------------3-------------
B-------------3---3-----------3---3-----------3---3-----------3---3-----
G-------3-------3-------3-------3-------3-------3-------3-------3-------
D---5---------------5---------------5---------------5-------------------
A-----------------------------------------------------------------------
E-----------------------------------------------------------------------


e-(harp)--3---------------3---------------3---------------3-------------
B-------------3---3-----------3---3-----------3---3-----------3---3-----
G-------3-------3-------3-------3-------3-------3-------3-------3-------
D---5---------------5---------------5---------------5-------------------
A-----------------------------------------------------------------------
E-----------------------------------------------------------------------


e---------3---------------3---------------3---------------3-------------
B-------------4---4-----------4---4-----------4---4-----------4---4-----
G-------5-------5-------5-------5-------5-------5-------5-------5-------
D---5---------------5---------------5---------------5-------------------
A-----------------------------------------------------------------------
E-----------------------------------------------------------------------

20210327

BRYAN SUTTON - THE GOOD DEED TAB


Bryan Sutton - The Good Deed relaxing guitar song from the album "Ready To Go"
It's in standard tuning with CAPO on the 1st fret
Download the TAB under the video



BRYAN SUTTON - THE GOOD DEED TAB

PDF + GUITAR PRO >>

Intro

e-----------3-----------3--------------3h5--h6p5p3----------------------
B-------3-----------3-----------------3------------------3h5-------3----
G---0-----------0--------------------0---------------0---------0--------
D-----------------------------------------------------------------------
A-----------------------------------------------------------------------
E-----------------------------------------------------------------------


e---3-------------------5---------------3---------------------------5---
B----3--------------3-------3---------------1-------------------3-------
G-----5-4---------------------------0-----------0-----------2-----------
D-----------5---4---------------4\2-----------------2---0---------------
A-----------------------------------------------------------------------
E-----------------------------------------------------------------------


Part 1

e-----------------------------------------------0---------------0-------
B-----------3---3---------------3-----------3---------------3-----------
G-----------2h4-0h2---------0-----------0---------------0---------------
D-------0---------------0-----------------------------------------------
A-----------------------------------2---------------3-------------------
E---3---------------3---------------------------------------------------