20180813

FLY ME TO THE MOON FINGERSTYLE TAB (JAMES BARTHOLOMEW)


Fly Me To The Moon fingerstyle guitar cover played by James Bartholomew
It's arranged in standard tuning with Capo on the 3rd
Download the TAB under the video



FLY ME TO THE MOON FINGERSTYLE TAB

GP5 + GP6 + PDF >>

 - Capo on the 3rd -

e---------------------------------------------------<5>-----------------
B-----------------------------------------------------------------------
G-----------------------------------------------------------------------
D-----------------------------------------------------------------------
A---------------------------------------x---------------x---------------
E---(x)-----x---(x)-x-----x---(x)-x-----------<5>-----------------------


e-----------------------------------------------------------------------
B-----1----p0---------------------------------1-----p0------------------
G-----0-----------2--p0-----------------2-------------------------------
D-----2---------------------3-------------------------------------------
A---0-------x---3-------x-----5-\---------------------------------------
E-----------------------------------x-----1------x----------------------


e-----------------------------------------------------------------------
B-----------------------------------------------------------------------
G---------2----p0-----------------------3.----3.------------------------
D---------------------3-----2-----------2.----2.------------------------
A-----------------2-----x-----3-----x---3.----3.------------------------
E-----3-----x-----------------------------------------------------------



20180804

SWEET CHILD 'O MINE SOLO TAB (ACOUSTICIAN)


Guns 'N Roses - Sweet Child 'O Mine guitar solo cover played by Acoustician
Amazing acoustic guitar playing in standard tuning
Download the TAB under the video



SWEET CHILD 'O MINE ACOUSTIC SOLO TAB

GP5 + GP6 + PDF >>

e---16/18~~~--------------------14.--13------13h14p13\11~---------------
B---x-------------------------------------------------------------------
G---x-------------------------------------------------------------------
D-----------------------------------------------------------------------
A-----------------------------------------------------------------------
E-----------------------------------------------------------------------


e---14.--13~------13h14p13p11\10~------11------/13.---------------------
B-----------------------------------------------------------------------
G-----------------------------------------------------------------------
D-----------------------------------------------------------------------
A-----------------------------------------------------------------------
E-----------------------------------------------------------------------


e---11--\9--------------------------------------------------------------
B------------11.--11--\9------------------------------------------------
G--------------------------11.--10--h11.--8~----------------------------
D-----------------------------------------------------------------------
A-----------------------------------------------------------------------
E-----------------------------------------------------------------------


20180729

MOONLIGHT SHADOW INSTRUMENTAL GUITAR TAB (DAVE MONK)

Maggie Reilly - Moonlight Shadow instrumental guitar cover played by Dave Monk
Easy guitar instrumental with backing track
Download the TAB under the video



MOONLIGHT SHADOW INSTRUMENTAL TAB

GP5 + GP6 + PDF >>

Part 1

e-----------------------------------------------------------------------
B--------------------7--------------------------------------------------
G-----6-8-9~-----9-9---9-8-6~-----6~------------------------------------
D---9-------------------------------------------------------------------
A-----------------------------------------------------------------------
E-----------------------------------------------------------------------


e-----------------------------------------------------------------------
B---------7~-------7-9~---9~---7----------------------------------------
G---8-8-9--------9------------------------------------------------------
D--------------------------------9~-------------------------------------
A-----------------------------------------------------------------------
E-----------------------------------------------------------------------


e-----------------------------------------------------------------------
B----------------7------------------------------------------------------
G-----9~---9-8-9---9-8-6~-----6~----------------------------------------
D---9-------------------------------------------------------------------
A-----------------------------------------------------------------------
E-----------------------------------------------------------------------


20180723

NOUVELLE VAGUE AND LISET ALEA ALGO FAMILIAR TAB (FINGERPICKING ACOUSTIC GUITAR TAB)


There is a cool acoustic guitar intro in Algo Familiar by Nouvelle Vague & Liset Alea
It's in standard tuning and no Capo is used
Download the TAB under the video



ALGO FAMILIAR ACOUSTIC TAB

GP5 + GP6 + PDF >>

Intro

e-----------------------------------------------------------------------
B-------1------1----------1------1--------------------------------------
G-------------------1-----------------0---------------------------------
D-------3--------3--------3--------3------------------------------------
A-----------------------------------------------------------------------
E---1-------1---------1-------1-----------------------------------------


e-----------------------------------------------------------------------
B-------1------1----------1------1--------------------------------------
G-------------------3-----------------0---------------------------------
D-------2--------2--------2--------2------------------------------------
A---3-------3---------3-------3-----------------------------------------
E-----------------------------------------------------------------------


e-----------------------------------------------------------------------
B-------1------1----------1------1--------------------------------------
G-------------------1-----------------0---------------------------------
D-------3--------3--------3--------3------------------------------------
A-----------------------------------------------------------------------
E---1-------1---------1-------1-----------------------------------------


20180716

LOVE LIES ACOUSTIC TAB (JOT SINGH)


Khalid & Normani - Love Lies acoustic cover played by Jot Singh
Great singing with a single acoustic guitar
Download the TAB under the video



LOVE LIES ACOUSTIC TAB

GP5 + GP6 + PDF >>

Intro

e-----------------------------------------------------------------------
B-------------------------3.--------------------------------------------
G-------4---------4-----------------------------------------------------
D-----5---5-----5-------5-----------------------------------------------
A---7---------5-------3-------------------------------------------------
E-----------------------------------------------------------------------


e-----------------------------------------------------------------------
B-------------------------3-x-------------------------------------------
G-------4---------4---------x-------------------------------------------
D-----5---5-----5-------5---x-------------------------------------------
A---7---------5-------3-----x-------------------------------------------
E-----------------------------------------------------------------------


Verse

e-----------------------------------------------------------------------
B-------------------------3-x-------------------------------------------
G-------4---------4---------x-------------------------------------------
D-----5---5-----5-------5---x-------------------------------------------
A---7---------5-------3-----x-------------------------------------------
E-----------------------------------------------------------------------