20120925

MANU CHAO CLANDESTINO SOLO TAB AND LESSON


There is a short guitar lesson how to play the solo of Manu Chao - Clandestino
This solo is from a live version.
TAB helps below.



MANU CHAO CLANDESTINO SOLO TAB


e-9----9----9----9--9----9----10.---9----9----9.----10.---9--7---5---2--
B-10---10---10---10-10---10---12.---10---10---10.---12.---10-9---7---3--
G-----------------------------------------------------------------------
D-----------------------------------------------------------------------
A-----------------------------------------------------------------------
E-----------------------------------------------------------------------


e-10---10-10---10-10---10---10.---9----9---9-9---9-9--------------------
B-12---12-12---12-12---12---12.---9----9---9-9---9-9---10p9-------------
G-----------------------------------------------------------11~---------
D-----------------------------------------------------------------------
A-----------------------------------------------------------------------
E-----------------------------------------------------------------------


e-9----9----9----9--9----9----10.---9-----------------------------------
B-10---10---10---10-10---10---12.---10----------------------------------
G-----------------------------------------------------------------------
D-----------------------------------------------------------------------
A-----------------------------------------------------------------------
E-----------------------------------------------------------------------



e-12-12-12\10--10-10\-9--9.----10---------------------------------------
B-14-14-14\12--12-12\10-10.----12---------------------------------------
G-----------------------------------------------------------------------
D-----------------------------------------------------------------------
A-----------------------------------------------------------------------
E-----------------------------------------------------------------------


e-12-12-12\10--10-10-10\-9---9--9--9\7--7-7-7\-----------5--------------
B-14-14-14\12--12-12-12\10--10-10-10\9--9-9-9\---6-7-6-7---9-7-6~--7~---
G-----------------------------------------------------------------------
D-----------------------------------------------------------------------
A-----------------------------------------------------------------------
E-----------------------------------------------------------------------