20121001

RED HOT CHILI PEPPERS CALIFORNICATION SOLO TAB


Short lesson how to play the solo part of Californication by Red Hot Chili Peppers.
TAB helps below.



CALIFORNICATION SOLO TAB


e------9---------------------------9------------------------------------ 
B-10--------------------------10----------------------------------------
G----------11(13)\(11)-----------------11(13)\(11)----------------------
D-----------------------------------------------------------------------
A-----------------------------------------------------------------------
E-----------------------------------------------------------------------


e-----------------------------------------------------------------------B-----------------------------------------------------------------------
G-11-11-11-11p9------------------9---11(13)\(11)-9----------------------
D---------------11-11-------9-11-------------------11-------------------
A-----------------------------------------------------------------------
E-----------------------------------------------------------------------


e------9---12---14-----------9---12---14(16)-14~------------------------B-10--------------------10----------------------------------------------
G-----------------------------------------------------------------------
D-----------------------------------------------------------------------
A-----------------------------------------------------------------------
E-----------------------------------------------------------------------



e-17---16---14---12---14---12-9---12---9---9----------------------------

B------------------------------------------12(14)-----------------------
G-----------------------------------------------------------------------
D-----------------------------------------------------------------------
A-----------------------------------------------------------------------
E-----------------------------------------------------------------------


e-9--------9--------12---9---14(16)\(14)-12-----------------------------

B-12(14)---12(14)---------------------------14--------------------------
G-----------------------------------------------------------------------
D-----------------------------------------------------------------------
A-----------------------------------------------------------------------
E-----------------------------------------------------------------------


e-12------------------12---10---9---------------------------------------

B------14---12---10---------------10------------------------------------
G-----------------------------------------------------------------------
D-----------------------------------------------------------------------
A-----------------------------------------------------------------------
E-----------------------------------------------------------------------