20121016

MANU CHAO ME QUEDO CONTIGO TAB


Let's see a short lesson how to play a live version of Manu Chao Me Quedo Contigo.
The TAB and the video follow this video: Manu Chao - Me Quedo Contigo



ME QUEDO CONTIGO TAB


Intro + 1st verse

   Em     Am     D      G      C       Am      B      Em

e--7------5------5------3------8-------5-------7------7-----------------
B--8------5------7------3------8-------5-------7------8-----------------
G--9------5------7------4------9-------5-------8------9-----------------
D--9------7------7------5------10------7-------9------9-----------------
A--7------7------5------5------10------7-------9------7-----------------
E---------5-------------3------8-------5-------7------------------------


2nd verse + trumpet part + 3rd verse


   Em     Am     D      G      C       B

e--7------5------5------3------8-------7--------------------------------
B--8------5------7------3------8-------7--------------------------------
G--9------5------7------4------9-------8--------------------------------
D--9------7------7------5------10------9--------------------------------
A--7------7------5------5------10------9--------------------------------
E---------5-------------3------8-------7--------------------------------



POWER PART

e-----------------------------------------------------------------------
B-----------------------------------------------------------------------
G-9-9-9-9-9-9-9-9-9-9-9-9-9-9-9-9---------------------------------------
D-9-9-9-9-9-9-9-9-9-9-9-9-9-9-9-9-7-7-7-7-7-7-7-7-7-7-7-7-7-7-7-7-------
A-7-7-7-7-7-7-7-7-7-7-7-7-7-7-7-7-7-7-7-7-7-7-7-7-7-7-7-7-7-7-7-7-------
E---------------------------------5-5-5-5-5-5-5-5-5-5-5-5-5-5-5-5-------


e-----------------------------------------------------------------------
B-----------------------------------------------------------------------
G-7-7-7-7-7-7-7-7-7-7-7-7-7-7-7-7---------------------------------------
D-7-7-7-7-7-7-7-7-7-7-7-7-7-7-7-7-5-5-5-5-5-5-5-5-5-5-5-5-5-5-5-5-------
A-5-5-5-5-5-5-5-5-5-5-5-5-5-5-5-5-5-5-5-5-5-5-5-5-5-5-5-5-5-5-5-5-------
E---------------------------------3-3-3-3-3-3-3-3-3-3-3-3-3-3-3-3-------


e-----------------------------------------------------------------------
B-----------------------------------------------------------------------
G-5-5-5-5-5-5-5-5-5-5-5-5-5-5-5-5-4-4-4-4-4-4-4-4-4-4-4-4-4-4-4-4-------
D-5-5-5-5-5-5-5-5-5-5-5-5-5-5-5-5-4-4-4-4-4-4-4-4-4-4-4-4-4-4-4-4-------
A-3-3-3-3-3-3-3-3-3-3-3-3-3-3-3-3-2-2-2-2-2-2-2-2-2-2-2-2-2-2-2-2-------
E-----------------------------------------------------------------------



Strumming pattern:   down(mute)  up(mute)    down  up(mute)   
                                    down(mute)  up(mute)    down  up(mute)