20121026

LOS LOBOS COME ON LET'S GO TAB (SOLO)


The original song was released in 1958 by Richie Valens. Later Los Lobos made a cover with this awesome guitar solo. Use some overdrive to get that dirty sound!
TAB below.



LOS LOBOS COME ON LET'S GO TAB


e----8'.------------8-10.--10(11)(10).----------------------------------
B-10------10---10-------------------------------------------------------
G-----------------------------------------------------------------------
D-----------------------------------------------------------------------
A-----------------------------------------------------------------------
E-----------------------------------------------------------------------


e-10-(11)(10)-8------8----7.--5-5---------------------------------------
B---------------10-7---10---------7.------------------------------------
G-----------------------------------------------------------------------
D-----------------------------------------------------------------------
A-----------------------------------------------------------------------
E-----------------------------------------------------------------------


e-----5-8'----5-----5-5------8-8-7.--5.---------------------------------
B-5-7-------------7-----7.---8-8-7.--5.--7.-----------------------------
G----------------------------------------7.-5-6-------------------------
D-----------------------------------------------7.--5h7--p5-------------
A-----------------------------------------------------------7.----------
E-----------------------------------------------------------------------



e-----------------------------------------------------------------------
B-----------------------------------------------------------------------
G---5'--------5.---7.--7(8)-7.---5-7-5----------------------------------
D-7------7.----------------------------7.-------------------------------
A-----------------------------------------------------------------------
E-----------------------------------------------------------------------


e--------------------------------5-------5-7.--5.---7p5-8--8p5----------
B-----------------------------5-7----5-7-----------------------8-5.-----
G--------------------------5h6------------------------------------------
D-7---7p5.-7---7p5.-----------------------------------------------------
A-----------------------------------------------------------------------
E-----------------------------------------------------------------------


e--------------12------12------12---------------------------------------
B----13-15(17)---(17)----(17)----15(17).--15.---13----------------------
G-14-----------------------------------------------14.------------------
D-----------------------------------------------------------------------
A-----------------------------------------------------------------------
E-----------------------------------------------------------------------


In the Intro he plays

e-5-7-8-8-8-8-8-7-5-0-0.------------------------------------------------
B-5-7-8-8-8-8-8-7-5-0-5.------------------------------------------------
G---------------------7.------------------------------------------------
D---------------------6.------------------------------------------------
A---------------------7.------------------------------------------------
E-----------------------------------------------------------------------