20121123

COLDPLAY EVERY TEARDROP IS A WATERFALL TAB (SOLO)


There is a nice solo in Every Teardrop Is A Waterfall by Coldplay about 0:51.
It sounds like it a was played with a scottish instrument ...
TAB helps below.



COLDPLAY EVERY TEARDROP IS A WATERFALL TAB


e-17p12------12---12---------12---12h14p12------------------------------
B--------------------14--------------------14---------------------------
G-----------------------------------------------------------------------
D-----------------------------------------------------------------------
A-----------------------------------------------------------------------
E-----------------------------------------------------------------------


e-17p12------12---12-14p12-12h14p12---------12---14---------------------
B-----------------------------------14----------------------------------
G-----------------------------------------------------------------------
D-----------------------------------------------------------------------
A-----------------------------------------------------------------------
E-----------------------------------------------------------------------


e-17p12------12---12---------12---12h14p12------------------------------
B--------------------14--------------------14---------------------------
G-----------------------------------------------------------------------
D-----------------------------------------------------------------------
A-----------------------------------------------------------------------
E-----------------------------------------------------------------------



e-17p12------12---12-14p12-12h14p12---------12---14---------------------
B-----------------------------------14----------------------------------
G-----------------------------------------------------------------------
D-----------------------------------------------------------------------
A-----------------------------------------------------------------------
E-----------------------------------------------------------------------


e-17p12------12---12---------12---12h14p12------------------------------
B--------------------14--------------------14---------------------------
G-----------------------------------------------------------------------
D-----------------------------------------------------------------------
A-----------------------------------------------------------------------
E-----------------------------------------------------------------------


e-17p12------12---12-------12h14p12---------12---14---------------------
B--------------------14-------------14----------------------------------
G-----------------------------------------------------------------------
D-----------------------------------------------------------------------
A-----------------------------------------------------------------------
E-----------------------------------------------------------------------


e-17p12------12---12---------12---12h14p12------------------------------
B--------------------14--------------------14---------------------------
G-----------------------------------------------------------------------
D-----------------------------------------------------------------------
A-----------------------------------------------------------------------
E-----------------------------------------------------------------------


e-17p12------12---12-14p12-12h14p12---------12---14---------------------
B-----------------------------------14----------------------------------
G-----------------------------------------------------------------------
D-----------------------------------------------------------------------
A-----------------------------------------------------------------------
E-----------------------------------------------------------------------